-------------------------------------------------------------------------------
	        Stand by Me fingerstyle - Ben E. King
-------------------------------------------------------------------------------
Tabbed by: Andrew
Email: whitechapelxmurders@hotmail.com

Tuning: Standard

e|---------------------------------------------------------------12*--7*---|
B|---------------------------------------------------------------12*--7*---|
G|---------------------------------------------------------------12*--7*---|
D|---------------------------------------------------------------12*--7*---|
A|----------------------------------------4-5-2h4-2h4-2-2h4-2-0~-12*--7*---|
E|-0h2-5-5---0h2-5-5--5-4-2-2--2-4-2-2--2------------------------12*--7*---|

e|-------------------------------------------------------------------------|
B|-0-3/5~--0-3~------3-----------------------------------------------------|
G|---------------2h4---4p2-------2~-4h6-4h6-4~--4h6--4h6p4-2~--------------|
D|---------------------------2h4-------------------------------------------|
A|-------------------------------------------------------------------------|
E|-------------------------------------------------------------------------|

This is my rendition of stand by me. Play it in verse chorus verse chorus format. rate plzz. 

| *  natural harmonic
| /  slide up
| \  slide down
| h  hammer-on
| p  pull-off
| ~  vibrato
| +  harmonic
| x  Mute note
===============================================================================
Show more