• Song:

    Tragic Scripture Bass

  • Artist:

    Beyond Agony

sponsored links
INTRO
G|----------------------------------------------------------------------------|
D|-----------------3-2-----------2^-------------------------2^----------------| 
A|-1-1-3-1-3-4-3-4-----3-2/5-2-3----1-1-3-1-3-4-3-4-6-5-3-2---3/5-------------|X2
E|----------------------------------------------------------------------------|

G|----------------------------------------------------------------------------|
D|-----------------3----------------------------3----------3^-----------------| 
A|-----6-5-0-3-5-0---5-3-0-6-5-3-0-6-5-0-3-5-0---5-3------------------------|
E|--0--------------------------------------------------0-0--------------------|

G|----------------------------------------------------------------------------|
D|-----------------3----------------------------3-----------------------------| 
A|-----6-5-0-3-5-0---5-3-0-6-5-3-0-6-5-0-3-5-0---5-3------------------------|
E|--0--------------------------------------------------0-0-0------------------|


VERSE 1
G|---------------------------------------------------------------------------|
D|---------------------------------------------------------------------------|
A|--------------------------------7^-----------------------------------------|  __
E|-0-0-3-0--0-0-3-0--0-0-3-0--0-0----0-0-3-0--0-0-3-0--0-0-3-0--345-1^-------|    |
             									  |
G|---------------------------------------------------------------------------|    | X2
D|---------------------------------------------------------------------------|	  |
A|--------------------------------7^-----------------------------------------|  __|
E|-0-0-3-0--0-0-3-0--0-0-3-0--0-0----0-0-3-0--0-0-3-0--0-0-3-0--5-4-3-2------|    


CHORUS 1
G|---------------------------------------------------------------------------|
D|---------------------------------------------------------------------------|
A|----------------------------3-5--1-3---------------------------------------| X2
E|-0-00-0-00-0--3-333-3-3-3-5----------1/3^----0-00-0-00-0-3-33-3-57-35-13---|


VERSE 2
G|---------------------------------------------------------------------------|
D|---------------------------------------------------------------------------|
A|--------------------------------7^-----------------------------------------|  __
E|-0-0-3-0--0-0-3-0--0-0-3-0--0-0----0-0-3-0--0-0-3-0--0-0-3-0--345-1^-------|    |
             									  |
G|---------------------------------------------------------------------------|    | X2
D|---------------------------------------------------------------------------|	  |
A|--------------------------------7^-----------------------------------------|  __|
E|-0-0-3-0--0-0-3-0--0-0-3-0--0-0----0-0-3-0--0-0-3-0--0-0-3-0--5-4-3-2------|    


CHORUS 2
G|---------------------------------------------------------------------------|
D|---------------------------------------------------------------------------|
A|----------------------------3-5--1-3---------------------------------------| 
E|-0-00-0-00-0--3-333-3-3-3-5----------1/3^----0-00-0-00-0-3-33-3-57-35-13---|

G|---------------------------------------------------------------------------|
D|---------------------------------------------------------------------------|
A|----------------------------3-5--1-3---------------------------------------| 
E|-0-00-0-00-0--3-333-3-3-3-5----------1/3^----0-00-0-00-0-3-33-1-1-1-1-1----|


BREAKDOWN
G|----------------------------------------------------------------------------|
D|----------------------------------------------------------------------------|
A|----------------------------------------------------------------------------| 
E|-0-0---0-0-0-0---3-3-3---0-0---0-0-0-0---12---0-0---0-0-0-0--3-3-3 0-0-0-0-|

Show more
sponsored links
sponsored links