• Song:

    57

  • Artist:

    Biffy Clyro

  • Album:

    thekidswhopoptodaywillr...

INTRO- bass notes that guitar plays
G|---------------------------|
D|---------------------------|
A|---------------------------|
D|---4-4-4-4-x-x-4-4-4-------|

G|--------------------------------------------------------------|
D|--------------------------------------------------------------|
A|--------------------------------------------------------------|
D|---0------5-5-5-4-4-4-4-x-x-4-4-4--|----0------5-5-5-5--------|

VERSE
G|--------------------------------|
D|--------------------------------|
A|------------5-----------------5-| X2
D|---4-----------------4----------|

PRE-CHORUS
G|--------------------------------------------------------------------------------------|
D|--------------------------------------------------------------------------------------|
a|---------------------------------5-5-5-5-5-5-5-7-7-7/9--------------------------------|
D|---5-5-7-7-9-9-9-9-9-9-9--5-5-7-7---------------------5-5-7-7-9-9-9-9-9-9-9--5-5-7-7--|

CHORUS
G|---------------------------------------------------------------------------|
D|---------------------------------------------------------------------------|
A|---------------------------------------------------------------------------|
D|--0--0-0-0-0-0-0-0--7--7-7-7-7-7-7-7--5--5-5-5-5-5-5-5-5-5-5-5-5-5-5-5-5---|

REPEAT PRECHORUS
--------------------
CHORUS
--------------------
OUTRO
G|-------------------------------------|
D|-------------------------------------|
A|-----9--9--9--9--9--9--9-7-5-4-4-4---|
D|-------------------------------------|
Show more