• Song:

    Booooom Blast And Ruin

  • Artist:

    Biffy Clyro

----------------------------------------------------------------------
                     Booooom, Blast & Ruin - Biffy Clyro
-------------------------------------------------------------------------------

Tabbed By : xAshCOREx

Tuning: Db Ab Db Gb (Drop C# Tuning/ Drop D - Half Step Down)

Pre-Verse/After Guitar Intro

Gb|---------------------------------------------------------------|
Db|---------------------------------------------------------------|
Ab|---------------------------------------------------------------|
Db|--9-9-9-9-9-9-9-9-9-9-9-9-9-9-9--9-9-9-9-9-9-9-9-9-9-9-9-9-9-9-|

Verse

Gb|----------------------------------------------------------------|
Db|----------------------------------------------------------------|
Ab|----------------------------------------------------------------|
Db|--9-9-9-9-9-9-9-9-9-9-9-9-9-9-0---0-0-0-0-0-0-0-0-0-0-0-0-0-0---|

Gb|----------------------------------------------------------------|
Db|----------------------------------------------------------------|
Ab|--0-0-0-0-0-0-0-0-0-0-0-0-0-0-----------------------------------|
Db|---------------------------------9-9-9-9-9-9-9-9-9-9-9-9-9-9-9--|

Gb|----------------------------------------------------------------|
Db|----------------------------------------------------------------|
Ab|--------------------------------------------------------------0-|
Db|--9-9-9-9-9-9-9-9-9-9-9-9-9-9-0---0-0-0-0-0-0-0-0-0-0-0-0-0-0---|

Gb|-------------------------------------------------------------|
Db|-------------------------------------------------------------|
Ab|--0-0-0-0-0-0-0-0-0-0-0-0-0-0--------------------------------|
Db|-------------------------------9-9-9-9-9-9-9-9-9-9-9-9-9-9-5-|

Pre-Chorus

Gb|----------------------------------------------------------------|
Db|----------------------------------------------------------------|
Ab|----------------------------------------------------------------|
Db|--5-5---5-5-5-7---7-7---7-7-7-9---9-9-9-9-9-9-9-9-9-9-9-9-9-9-5-|

Gb|------------------------------------------------|
Db|------------------------------------------------|
Ab|------------------------------------------------|
Db|--5-5---5-5-5-7---7-7---7-7-7---7-7---7-7---7-0-|

Chorus

Gb|----------------------------------------------------------------|
Db|----------------------------------------------------------------|
Ab|----------------------------------------------------------------|
Db|--0-0-0-0-0-0-0-0-0-0-0-0-0-0-5---5-5-5-5-5-5-5-5-5-5-5-5-5-5-7-|

Gb|----------------------------------------------------------------|
Db|----------------------------------------------------------------|
Ab|----------------------------------------------------------------|
Db|--7-7-7-7-7-7-7-7-7-7-7-7-7-7-9---9-9-9-9-9-9-9-9-9-9-9-9-9-9-0-|

Gb|---------------------------------------------------------------|
Db|---------------------------------------------------------------|
Ab|---------------------------------------------------------------|
Db|--0-0-0-0-0-0-0-0-0-0-0-0-0-0-5--5-5-5-5-5-5-5-5-5-5-5-5-5-5-7-|

Gb|--------------------------------|
Db|--------------------------------|
Ab|--------------------------------|
Db|--7-7-7-7-7-7-7-7-7-7-7-7-7-7-9-|

Pre Verse x1
Verse x1
Chorus x1

Bass Solo/Riff

Gb|------7-------------7------|
Db|4-0-------0-4-0-4-0--------|
Ab|---------------------------|
Db|---------------------------|           Repeat 16x

FX Pre Chorus
Gb|------------------------------------------------------------------|
Db|------------------------------------------------------------------|
Ab|------------------------------------------------------------------|
Db|-5---5-5---5-5-5-7--7-7---7-7-7-9---9-9---9-9-9-9---9-9---9-9-9-5-|
 
                                                   
Gb|------------------------------------------------|
Db|------------------------------------------------|
Ab|------------------------------------------------|
Db|--5-5---5-5-5-7---7-7---7-7-7-7-s/--------------|     (s/ = Slide Up Neck)

Chorus x 1

Extra End Of Chorus
Gb|-------------------------------------------------------------------|
Db|-------------------------------------------------------------------|
Ab|-------------------------------------------------------------------|
Db|-0---0-0-0-0-0-0-0-0-0-0-0-0-0-0-7---7-7-7-7-7-7-7-7-7-7-7-7-7-7---|

Outro

Gb|----------------------------------------------------------------|
Db|----------------------------------------------------------------|
Ab|----------------------------------------------------------------|
Db|4-0---12--0-4-0-4-0-12----------4-0---12--0-4-0-4-0-12----------|     Repeat Untill End.


| /  slide up
| \  slide down
| h  hammer-on
| p  pull-off
| ~  vibrato
| +  harmonic
| x  Mute note
============================================================================
Show more