Artist: Big D & The Kids Table
Song: Been Wishing On

Tabbed By : Nick Kauffman
e-mail: xchocodonutsx@hotmail.com
Tuning: Standard


The Meat of the Song

G|---------4-----------------------------------------------------|
D|------2--------------------------------------------------------|
A|-0---------0--2--------5-5---4-5-5--4--------------------------|
E|---------------------------------------------------------------|

G|---------4-----------------------------------------------------|
D|------2--------------------------------------------------------|
A|-0---------0--2--------2-2---0-2-2--4--------------------------|
E|---------------------------------------------------------------|

Sometimes he'll play the 5th fret on the E string instead of the open fret on the A 
so he can slide to 0. Watch for that.

Bridge (1:38-2:38 )

G|---------------------------------------------------------------|
D|---------------------------------------------------------------|
A|-2---4---5---7-------------------------------------------------|
E|---------------------------------------------------------------|

G|---------------------------------------------------------------|
D|--------0--4---------------------------------------------------|
A|-2-2--2------2-2-------5-5--4-5--0--5-5------------------------|
E|---------------------------------------------------------------|

G|---------------------------------------------------------------|
D|--------0--4-------------------------------9-------------------|
A|-2-2--2------2-2-------0-0--0-4--0--7-7--7----7----------------|
E|---------------------------------------------------------------|

G|---------------------------------------------------------------|
D|--------0--4---------------------------------------------------|
A|-2-2--2------2-2-------5-5--4-5--0--5-5------------------------|
E|---------------------------------------------------------------|

G|---------------------------------------------------------------|
D|--------0--4---------------------------------------------------|
A|-2-2--2------2-2-------5-5--5-5-4--7-7---7-7-7-7---------------|
E|---------------------------------------------------------------|

      (2:06)

G|---------------------------------------------------------------|
D|------------------7-------4----------9-------------------------|
A|-0--7--0----0--7-------2-----2----2-----9----------------------|
E|---------------------------------------------------------------|

G|---------------------------------------------------------------|
D|------------------7-------4-------9----------------------------|
A|-0--7--0----0--7-------2-----2-------9-------------------------|
E|----------------------------------------7----------------------|

G|---------------------------------------------------------------|
D|------------------7-------4----------9-------------------------|
A|-0--7--0----0--7-------2-----2----2-----9----------------------|
E|---------------------------------------------------------------|

G|---------------------------------------------------------------|
D|------------------7--------------------------------------------|
A|-0--7--0----0--7-------2---4---5---7---------------------------|
E|---------------------------------------5\0---------------------|

Then repeat the beginning, and you're done!
(The end is played exactly as written below)

(2:37 - end)

G|---------------------------------------------------------------|
D|---------------------------------------------------------------|
A|----------------------------------5--5-------------------------|
E|---------------------------------------5\0---------------------|

G|---------4-----------------------------------------------------|
D|------2--------------------------------------------------------|
A|-----------0--2--------2-2---0-2-2--4--------------------------|
E|--------------------------------------5\0----------------------|

G|---------4-----------------------------------------------------|
D|------2--------------------------------------------------------|
A|-----------0--2-------4-5-5---4-5-5--4-------------------------|
E|---------------------------------------5\0---------------------|

G|---------4-----------------------------------------------------|
D|------2--------------------------------------------------------|
A|-----------0--2--------0-2---0-2-------------------------------|
E|---------------------------------5\0---------------------------|


| /  slide up
| \  slide down
| h  hammer-on
| p  pull-off
| ~  vibrato
| +  harmonic
| x  Mute note
Show more