• Song:

    Descending

  • Artist:

    Black Crowes

  • Album:

    Sho' Nuff

DESCENDING - Black Crowes (from Amorica, 1994)
Bassist:  Johnny Colt

Tabbed By : G Saunders
e-mail: organisedchaos@talktalk.net

Tuning: Standard EADG

A beautiful song with some elegant piano work from Eddie Harsch.   Quite a simple
rythym track but works really well just follow the piano really
This is the main part:

G|--------------------------------------------------------------------------|
D|-2---2-0------------------------------------------------------------------|
A|----------3-2-3-0---------------------------------------------------------|
E|-------------------2~-----------------------------------------------------|

"curses,  curses and jewels.........."
G|--------------------------------------------------------------------------|
D|-----------------------------7--------------------------------------------|
A|--------------------------------7-7---------------------------------------|
E|-0-3-55---00--3-55--00-3-55-----------------------------------------------|

Thats about it except for the playout from 4:04

G|--------------------------------------------------------------------------|
D|---0-2---0-2---0-2---0-2---0-2---0-2---0-2----0-2---0-2----0-2---0-2--0-2-|
A|-2-----2-----2-----2-----2-----2-----2------2-----2------2-----2-----2----|
E|--------------------------------------------------------------------------|

G|--------------------------------------------------------------------------|
D|--------------------------------------------------------------------------|
A|-0------------------------------------------------------------------------|
E|---0-0--------------------------------------------------------------------|
Show more