• Song:

    Hard To Handle

  • Artist:

    Black Crowes

  • Album:

    The Southern Gig

sponsored links
I'm pretty sure this is all correct. Use a double humbucker guitar, and lots of fuzz. 


E|---------------------------------------------|
B|-9b--9b--10-9-7------------------------------|
G|-----------------10-9-7----7h8---------------|
D|-------------------------9------9p7h9--------|
A|---------------------------------------------|
E|---------------------------------------------| 

E|----------------------|-------------------|
B|----------------------|--------7----------|
G|-----4--7-7p6p4---4-4~|-----4--7-6p4----4~|
D|-4h6------------6-----|-4h6-----------6---|
A|----------------------|-------------------|
E|----------------------|-------------------|

E|---------------------------------------------------|
B|-9b-9-7--10h12-10h12--------12h14-----15p12-----12b|
G|----------------------11/13--------13-------13-----|
D|---------------------------------------------------|
A|---------------------------------------------------|
E|---------------------------------------------------| 

E|-----17------17------17------17------------|
B|-17b-----17b-----17b-----17b-----17-15-----|
G|----------------------------------------16-|
D|-------------------------------------------|
A|-------------------------------------------|
E|-------------------------------------------|

 I only got the first part of the solo down, but for the second solo i just improvise in Key of B  
 

                          Rock On Amoricans!
Show more
sponsored links
sponsored links