• Song:

    Black Coffee

  • Artist:

    Black Flag

  • Album:

    Live '84

BLACK COFFEE
By Black Flag 
>From the 1984 release of "Slip It In"


This is the best i could get it. I'm not very good at writing tabliture. Just listen to the song a few times and you'll get the order. This tab is probably wrong so please e-mail me with any corrections or suggestions at icon_redseal@yahoo.com. 
                                                    ENJOY!!!!
________________________________________________________________________________

Intro
G :--------------|--------------|--------------|------------|-----------------------------------------|
D :--------------|--------------|--------------|------------|-----------------------------------------|
A :--------------|--------------|--------------|------------|-----------------------------------------|
E :---0-0-3-53-|---0-0-3-53-|---0-0-3-53|--6-5-4-0-|--3-3-3-3-3--5-5-5-5-5--2-2-2-2-2-|

G :---------------------------------|
D :---------------------------------|
A :---------------------------------|
E :--4-4-6-6--3-3-5-5--1-1-1-1-|


Verses
                           Repeat  3x
G :------------------------------------------------------|
D :------------------------------------------------------|
A :---------------------------2-2-2-222---------------|
E :--5-5-555--3-3-3-333----------------2-2-2-222-| 

G :------------------------------------------------|
D :------------------------------------------------|
A :------------------------------------------------|
E :--5-5-555--3-3-3-333---0-0-0-0-0-0-0-0-|

     Play verse 1x during solo

Chorus
                        Repeat  3x
G :-------------|-------------|--------------|------------|
D :-------------|-------------|--------------|------------|
A :-------------|-------------|--------------|------------|
E :--0-0-3-53-|--0-0-3-53-|--0-0-3-53-|--6-5-4-0-|

G :-------------------------------------R-----------------|                
D :--------------------------------------E----------------| 
A :--------------------------------------S----------------|   
E :--555555----555555----555555--T --5-5-5---5--|

                     Repeat  2x                        
G :--------------------------------------------------------|
D :--------------------------------------------------------|
A :--------------------------------------------------------|
E :--3-3-3-333--2-2-2-222--1-1-1-111--0-0-0-000-|

       Now play this  1x
G :------------|
D :------------|
A :------------|
E :--3-2-1-0--|
     
Now repeat intro 1x and return to verse
Show more