• Song:

    No Values

  • Artist:

    Black Flag

  • Album:

    Live at The On Broadway...

Artist :Black Flag
Song   :No Values
Album  :Everything went Black


Riff #1
G----------------------------------------------------------------------
D----------------------------------------------------------------------
A-----------------3-5----------------------------------5-3-------------
E-5-5-5-5-3-3-3-3----5-5-5-5-5-5-5-5-5-5-3-3-3-3-3-3-3------5-5-5-5-5-5

Chorus
G-------------------------------------------------------------------------
D-------------------------------------------------------------------------
A-5-5-5-5----------5-5-5-5-5---------3-3-3-3-3----------3-3-3-3-3---------
E--------5-5-5-5-5----------5-5-5-5-5---------3-3-3-3-3----------3-3-3-3-3

Play at the end:
G---------------------------------------------------------------------------
D---------------------------------------------------------------------------
A---------------3-5------------------5-3------------------3-5---------------
E-555555-333333----555555555-33333333----5555555555-333333----55555555-33333

G-------------------------------------------------------------------
D-------------------------------------------------------------------
A-5-3---------5-3-----------5-3-------------------------------------
E----555555555---5555555555-----5-----------------------------------

tabbed by haasler
Show more