• Song:

    Paralyzed

  • Artist:

    Black Flag

  • Album:

    1986-06-28: Detroit, US...

Paralyzed by Black Flag
From the In My Head CD
Tabbed by Diabolus70
Tune to E

Intro
E|---------6-5------------------------------------6-5-----------------------|
B|---7-8-------8-6----------------------------7-8------8-6------------------|
G|-5----------------7----------------------5---------------7----------------|
D|-------------------------55555--33333-------------------------77777--55555|
A|-------------------------55555--33333-------------------------77777--55555|
E|-------------------------33333--11111-------------------------55555--33333|
     
 Chorus
E|-------------------------------------------------------------------------|
B|-------------------------------------------------------------------------|
G|-------------------------------------------------------------------------|
D|-------------------------------------------------------------------------|
A|--777--555----777--101010------------------------------------------------|
E|--555--333----555---8-8-8------------------------------------------------|
Show more