• Song:

    Rise Above

  • Artist:

    Black Flag

  • Album:

    Live at The On Broadway...

Intro: 

e|---------------------------------------------------------------------|
b|---------------------------------------------------------------------|
g|---------------------------------------------------------------------|
d|---------------------------------------------------------------------|
a|-7-7-7-7-6-6-6-6-5-5-5-5-4-4-4-4-5-5-7-7-7-7-5-5-7-7-7-7-x-9-9-9-9-0-|
e|---------------------------------3-3-5-5-5-5-3-3-5-5-5-5-x-7-7-7-7-0-|

   
e|---------------------------------------------------------------------|
b|---------------------------------------------------------------------|
g|---------------------------------------------------------------------|
d|---------------------------------------------------------------------|
a|-5-5-5-5-5-5-5-5-5-5-5-5-5-5-5-7-7-7-7-7-7-7-7-7-7-7-7-7-7-7-7-7-x--|
e|-3-3-3-3-3-3-3-3-3-3-3-3-3-3-3-5-5-5-5-5-5-5-5-5-5-5-5-5-5-5-5-5-x--|

Verses:
e|---------------------------------------------------------------------|
b|---------------------------------------------------------------------|
g|---------------------------------------------------------------------|
d|---------------------------------------------------------------------|
a|-5-5-9-9-5-5-9-9-5-5-9-9-5-5-9-9-5-5-7-7-7-7-5-5-7-7-7-7-------------|
e|---------------------------------3-3-5-5-5-5-3-3-5-5-5-5-------------|

Chorus:
e|---------------------------------------------------------------------|
b|---------------------------------------------------------------------|
g|---------------------------------------------------------------------|
d|-9-x-x-x-x-x-x-5-x-x-x-x-x-x-7-x-x-x-x-x-x-5-5-7-7-7-7---------------|
a|-9-x-x-x-x-x-x-5-x-x-x-x-x-x-7-x-x-x-x-x-x-5-5-7-7-7-7---------------|
e|-7-x-x-x-x-x-x-3-x-x-x-x-x-x-5-x-x-x-x-x-x-3-3-5-5-5-5---------------|

Solo:
e|-------10-10-------10-10-------10-10-------10-10------------------------|
b|-10-10-------10-10-------10-10-------10-10------------------------------|
g|-------------------------------------------------7-7-9-9-9-9-7-7-9-9-9-9|
d|------------------------------------------------------------------------|
a|------------------------------------------------------------------------|
e|------------------------------------------------------------------------|

e|-15-13-12-15-13-12-15-13-12-15-13-12-16-16-16-16-13-13-13-13-15-15-15-15|
b|------------------------------------------------------------------------|
g|------------------------------------------------------------------------|
d|------------------------------------------------------------------------|
a|------------------------------------------------------------------------|
e|------------------------------------------------------------------------|

e|-20-16-18-|
b|-----------|
g|-----------|
d|-----------|
a|-----------|
e|-----------|
Show more