• Song:

    Rise Above

  • Artist:

    Black Flag

  • Album:

    Live at The On Broadway...

Intro
      4x
|-------------|-----------------------------------------------------------------|
|-------------|-----------------------------------------------------------------|
|-------------|----------------------------55-----------------------------------|
|-------------|-5-7-5-7-------------5-7-77-55-2-55-55555555-77-77777777---------|
|-77-66-55-44-|-5-7-5-7-77-66-55-44-5-7-77-33-2-55-55555555-77-77777777-/Slide--|
|-------------|-3-5-3-5-------------3-5-55----0-33-33333333-55-55555555---------|

Verse
4x
|------------------------------------|
|------------------------------------|
|------------------------------------|
|-----4-----4-----4-----4---5-7--5-7-|
|--5----5-----5-----5-------5-7--5-7-|
|---------------------------3-5--3-5-|

Chorus
|---------------------------------------------------------------------|
|---------------------------------------------------------------------|
|-9-9999---5-5555------------------9-XXXX---7-XXXX--------------------|
|-9-9999---5-5555---5-5555---5-7---9-XXXX---7-XXXX---9-XXXX--5-7--5-7-|
|-7-7777---5-3333---5-5555---5-7---7-XXXX---5-XXXX---9-XXXX--5-7--5-7-|
|-------------------3-3335---3-5---------------------7-XXXX--3-5--3-5-|

Solo
|---10--10--10--1010------------15-13-12-15-13-12-17-14-17-15-17-16^------15-17^-|
|-10--10--10--10--10--3-55-3-55--------------------------------------18-16-------|
|--------------------------------------------------------------------------------|
|--------------------------------------------------------------------------------|
|--------------------------------------------------------------------------------|
|--------------------------------------------------------------------------------|

Outro
3x
|----------|
|----------|
|----------|
|-5-7--5-7-|
|-5-7--5-7-|
|-3-5--3-5-|

Play:

Intro
Verse
Chorus
Verse
Chorus
Solo
Chorus
Verse
Chorus
Outro
Show more