• Song:

    Rise Above

  • Artist:

    Black Flag

  • Album:

    Live at The On Broadway...

------------------------------------------------------------------------------- 
RISE ABOVE - Black Flag 
------------------------------------------------------------------------------- 

Tabbed By: Johannes (johannes@mommy-gotta-wristcut.zzn.com)



INTRO
G-|-------------------------------------------------------------------------| 
D-|-------------------------------------------------------------------------| 
A-|--777-666-555-444---777-666-555-444---777-666-555-444---777-666-555-444--| 
E-|-------------------------------------------------------------------------| 

G-|-------------------------------------------------------------------------| 
D-|-------------------------------------------------------------------------| 
A-|------------------------777-666-555-444----------------33----------------| 
E-|--33--555----33--555-----------------------33--555x----------0-----------| 

G-|-------------------------------------------------------------------------| 
D-|-------------------------------------------------------------------------| 
A-|----------------------------------------[E-Guitare PICKSLIDE]------------| 
E-|--1-1111111111111---33-3333333333333-------------------------------------| 

VERSE
G-|-------------------------------------------------------------------------| 
D-|------4-------4-------4-------4------------------------------------------|(x4) 
A-|--5-------5-------5-------5----------------------------------------------| 
E-|------------------------------------33--555---33--555--------------------| 

CHORUS 
G-|-------------------------------------------------------------------------| 
D-|-------------------------------------------------------------------------| 
A-|--7----------3-----------------------------------------------------------| 
E-|------------------------3----------33--555-------------------------------| 

G-|-------------------------------------------------------------------------| 
D-|-------------------------------------------------------------------------| 
A-|--7----------5-----------------------------------------------------------| 
E-|------------------------7----------33--555---33-555----------------------| 


SOLO  
G-|-------------------------------------------------------------------------| 
D-|-------------------------------------------------------------------------|(x2) 
A-|--5555555555555555-------------------------------------------------------| 
E-|---------------------33-555---33-555-------------------------------------| 

OUTRO 
G-|-----------|     |-------------------------------------------------------| 
D-|-----------| (x5)|-------------------------------------------------------| 
A-|-----------|     |-------------------------------------------------------| 
E-|--33--555--|     |--33--5~-----------------------------------------------|
Show more