• Song:

    Rise Above

  • Artist:

    Black Flag

  • Album:

    Live at The On Broadway...

Band: Black Flag
Song: Rise Above
Album: Damage
Tabbed By: Stun92


Intro:        G ---------------------------------------------------------
	 D ---------------------------------------------------------
	 A 777666555444-777666555444-777666555444-------------------
	 E ----------------------------------------------------------

	 G -----------------------------------------------------------------
	 D -----------------------------------------------------------------
	 A 777666555444-----------------------------777666555444
	 E---------------------55-3333—55-3333--------------------

	 G -------------------------------------------------------
	 D -------------------------------------------------------
	 A 55-3333—3-3-------------------------------------
	 E --------------------0—1-11111111-33-33333333

Verse: G ---------------------------------
	  D ----4--4—4—4---4-----------
	  A —5--5—5—5—5------------
	  E ------------------------55-3333

Chorus: G -----------------------------------------------------------------
	     D -----------------------------------------------------------------
	     A 7-------3--------------------------7------3--------------------
	     E ----------------3----55-3333--------------------7----55-333

	    G -----------
	    D -----------
	    A------------
	    E –55-3333

Solo: G -------------------------------------
	 D -------------------------------------
	 A 55555555-------------------------
	 E ---------------55-3333—55-3333

This is my very first tab I am pretty sure it is correct. You will have to listen to the song and play however many times needed and put the parts were they need to go
Show more