• Song:

    Rise Above

  • Artist:

    Black Flag

  • Album:

    Live at The On Broadway...

Band: Black Flag
Song: Rise Above
Album: Damaged
Written By: Greg Ginn

Intro - Listen for when you have to come in.

G|----------------------------|-------------|
D|*--------------------------*|-------------|
A|*--------------------------*|-------------|
E|--121212-111111-101010-999--|-3-555-3-555-|

G|---------------------------------|
D|---------------------------------|
A|---------------------------------|
E|-121212-111111-101010-999--3-555-|

G|----------------------------------------|
D|----------------------------------------|
A|-3--------------------------------------|
E|---1-3-3333333333333335-555555555555555-|
 
Then there is a pickslide and after that you play…

Verse

G|------------------------------|
D|-0044004400440044-------------|
A|------------------------------| (x 4)
E|------------------3-555-3-555-|

Chorus

G|-------------------------------|
D|-2XXXXXX-----------------------|
A|---------2XXXXXX-0XXXXXX-------|
E|-------------------------3-555-|

G|-------------------------------------|
D|-2XXXXXX-0XXXXXX---------------------|
A|-----------------2XXXXXX-------------|
E|-------------------------3-555-3-555-|

Verse

G|------------------------------|
D|-0044004400440044-------------|
A|------------------------------| (x 4)
E|------------------3-555-3-555-|

Chorus

G|-------------------------------|
D|-2XXXXXX-----------------------|
A|---------2XXXXXX-0XXXXXX-------|
E|-------------------------3-555-|

G|-------------------------------------|
D|-2XXXXXX-0XXXXXX---------------------|
A|-----------------2XXXXXX-------------|
E|-------------------------3-555-3-555-|

Guitar Solo

G|------------------------------|
D|-0000000000000000-------------|
A|------------------------------| (x 2)
E|------------------3-555-3-555-|

Chorus

G|-------------------------------|
D|-2XXXXXX-----------------------|
A|---------2XXXXXX-0XXXXXX-------|
E|-------------------------3-555-|

G|-------------------------------------|
D|-2XXXXXX-0XXXXXX---------------------|
A|-----------------2XXXXXX-------------|
E|-------------------------3-555-3-555-|

 Verse

G|------------------------------|
D|-0044004400440044-------------|
A|------------------------------| (x 4)
E|------------------3-555-3-555-|

 Chorus

G|-------------------------------|
D|-2XXXXXX-----------------------|
A|---------2XXXXXX-0XXXXXX-------|
E|-------------------------3-555-|

G|-------------------------------------|
D|-2XXXXXX-0XXXXXX---------------------|
A|-----------------2XXXXXX-------------|
E|-------------------------3-555-3-555-|

         ______  _____
          |1-6.   |7.
G|---------------|-----|
D|*-------------*|-----|
A|*-------------*|-----|
E|--3-555-3-555--|-(5)-|

Please Rate!
Show more