• Song:

    Slip It In

  • Artist:

    Black Flag

  • Album:

    Wasted Again

------------------------------------------------------------------------------- 
SLIP IT IN - Black Flag 
------------------------------------------------------------------------------- 

Tabbed by Chris S. Cobb" lumpygravy@hotmail.com 

Intro 
---|-0----0--------0----0-------|---0--12-15b17r15-12-| 
---|---3----3--------3----3-----|---0--12-------------| 
-1-|----------1-------------1---|---------------------| 
---|------------0-------------0-|-2-------------------| 
---|----------------------------|-2-------------------| 
---|----------------------------|-0-------------------| 

Intro - Bass enters first 
--------------------------------------| 
--------------------------------------| 
----------------------9---------------| 
--------------------9-----------------| 
-2-2--2-2-2--2-2--7-----7------------| 
-0-0--0-0-0--0-0----------------------| 

------------------------------|--------------------------------| 
------------------------------|--------------------------------| 
------------------------------|--------------------------------| 
-5-5-5--5-5-5--5--5-5-5-----2-|-11-11-11--11-9-----------------| 
-5-5-5--5-5-5--5--5-5-5-3-3-2-|-11-11-11--11-9-----------------| 
-3-3-3--3-3-3--3--3-3-3-----0-|--9--9--9---9-7-----------------| 

------------|-------------------------------| 
------------|-------------------------------| 
------------|-------------------------------| 
-7-7-7--7-5-|-2-----------------------------| 
-7-7-7--7-5-|-2-----------------------------| 
-5-5-5--5-3-|-0-----------------------------| 

-------------|---------------------------------| 
-------------|---------------------------------| 
-------------|---------------------------------| 
-5-5-5-5-5-5-|------------------5-5-5-----2----| 
-5-5-5-5-5-5-|------------------5-5-5-3-3-2----| 
-3-3-3-3-3-3-|------------------3-3-3-----0----| 

-------------------------------------------------------------------------------
Show more