• Song:

    Spray Paint

  • Artist:

    Black Flag

  • Album:

    Damaged & Jealous Again

------------------------------------------------------------------------------- 
SPRAY PAINT - Black Flag 
------------------------------------------------------------------------------- 

tabbed by refused56@punkmail.com 

intro 
e-----------| 
b-----------| 
g-----------| 
d-----------| 
a--7--------| 
e--5--------| 

E--------------------------| 
B--------------------------| 
G--------------------------| 
D--------5-55--------------| 
A---7-77-3-33-333---2------| 
E---5-55------111---0------| 

rest between each chord 
E----------------| 
B----------------| 
G----------------| 
D--5-6-7-8-9-10--| 
A--3-4-5-6-7-9---| 
E----------------| 

tips:For a real black flag sound,just play real messy and have your 
amp settings with little bass(around 3), 
middle(around 5-6)and treble all the way up and turn the dist.on as 
high as it can go! 

-------------------------------------------------------------------------------
Show more