• Song:

    All Hands Against His Own

  • Artist:

    Black Keys

  • Album:

    Rubber Factory

All Hands Against His own by The Black Keys
from Rubber Factory

br = bend and release
bh = bend and hold
                                                                x4
e-----------------------------------------------------------------|
B----------------------------------------------------13-xx-11-13--|
G----------------------6-xx-4-6----------------------14-xx-12-14--|
D----------------------7-xx-5-7----------------------14-xx-12-14--|
A-----5-7br-5---5-7----7-xx-5-7------5-7p5---5-7/12--12-xx-10-12--|
E-5-8---------8-----5--5-xx-3-5--5-8-------8----------------------|

0.33                                      x3
e-------------------------------------------|
B-------------------------------------------|
G-7-7-7-7-7-7-7-7---6-xx-4-6------6-xx-4-6--|
D-7-7-7-7-7-7-7-7---7-xx-5-7------7-xx-5-7--|
A-5-5-5-5-5-5-5-5---7-xx-5-7------7-xx-5-7--|
E-----------------5-5-xx-3-5-3h5--5-xx-3-5--|

0.58
e-------------------------------------------|
B-------------------------------------------|
G-7h9-7-----------------------9-7----7-9----|
D-------10-12-10/12-----10-12-----10-----7--|
A--------------------12---------------------|
E-------------------------------------------|

SOLO
e---------------------8h10p8-10/12-10-8-5---------------|
B---------------8~/10-----------------------------5/10--|
G-7bh-7p5---------------------------------5h7p5---------|
D---------7-5h7---------------------------------7-------|
A-------------------------------------------------------|
E-------------------------------------------------------|

OUTRO
e----------------------|
B----------------------|
G----------------------|
D----------------------|
A-----5-7brp5---5------|
E-5-8---------8---8-5--|

Any corrections please comment
Thanks
Show more