• Song:

    Girl Is On My Mind

  • Artist:

    Black Keys

  • Album:

    Till I Get My Way

SONG: GIRL IS ON MY MIND
ARTIST: THE BLACK KEYS
ALBUM: RUBBER FACTORY

INTRO:
e-----------------|		e------------------|
B----5------------|		B-----5------------|
G5/6--------------|		G5/6----4---4---42|
D-------------—---|  2X		D--------------—---|
A-----------------|  THEN->	A------------------|
E-----------------|		E------------------|
   1 + 2 + 3 + 4 + 		    1 + 2 + 3 + 4 +

VERSE LICK:
e----------------|---------------|
B----------------|---------------|
G----------------|---------------|
D-----4------—7--|----9----------|
A-----4-------7--|----9----------|
E-2---2---5---5--|7---7---9--5--|
  1 + 2 + 3 + 4 + 1 + 2 + 3 + 4 + 

DIFFERENT VERSE LICK ENDING:
e----------------|
B----------------|
G---------4------|
D-----9------—---|
A-----9----------|
E-7---7----------|
  1 + 2 + 3 + 4 + 

BRIDGE:
e----------------|---------------|---------------|---------------|-
B----------------|---------------|---------------|---------------|-
G----------------|----------2-2-2|2--------------|----------2-2-2|-
D---4-4-4-4-2—2-2|2-4-4-4-4------|--4-4-4-4-2-2-2|2-4-4-4-4------|-
A----------------|---------------|---------------|---------------|-
E----------------|---------------|---------------|---------------|-
  1 + 2 + 3 + 4 + 1 + 2 + 3 + 4 + 1 + 2 + 3 + 4 + 1 + 2 + 3 + 4 +	

LISTEN TO THE SONG TO FIGURE OUT THE ORDER, IT’S PRETTY EASY.  USE F#
MINOR PENTATONIC TO SOLO IN MOSTLY E POSITION AND A LITTLE BIT IN A
POSITION.
Show more