• Song:

    Girl Is On My Mind

  • Artist:

    Black Keys

  • Album:

    Till I Get My Way

----------------------------------------------------------------------------
GIRL IS ON MY MIND - The Black Keys
----------------------------------------------------------------------------


Tuning: standard

e|-----------------------------------------------------------|
B|------5--------5-----------5----5--5-----------------------|
G|--4h6------4h6-6-------4h6-6----4--4----2------------------|
D|-------------------------------------------4p2-------------|
A|-----------------------------------------------------------|
E|-----------------------------------------------------------|

e|------------------------------------------------------------|
B|------------------------------------------------------------|
G|------------------------------------------------------------|
D|----4------7------9-----------------------------------------|
A|----4------7------9-----------------------------------------|
E|--2-2----5-5----7-7------7b--5------------------------------|

e|------------------------------------------------------------|
B|------------------------------------------------------------|
G|------------------------------------------------------------|
D|----4------7------9------9b---------------------------------|
A|----4------7------9-----------------------------------------|
E|--2-2----5-5----7-7-----------------------------------------|

e|--------------------------------------------------------|  x2
B|--------------------------------------------------------|
G|--------------------------------------------------------|
D|--5555-3333-5555-8888-----------------------------------|
A|--------------------------------------------------------|
E|--------------------------------------------------------|

e|----------------------------------------------------------|  x12
B|----------------------------------------------------------|
G|-----------------5----------------------------------------|
D|-----5-----8-----5----------------------------------------|
A|-----5-----8--3--3--5--3--1-------------------------------|
E|--3--3--6--6----------------------------------------------|




| /  slide up
| \  slide down
| h  hammer-on
| p  pull-off
| ~  vibrato
| +  harmonic
| x  Mute note
==============================================
Show more