• Song:

    Give Your Heart Away

  • Artist:

    Black Keys

-------------------------------------------------------------------------------
			     Give Your Heart Away - The Black Keys
-------------------------------------------------------------------------------
Tabbed by: Late Nor Great

Tuning: Standard

VERSE (0:00-0:13)

0:00-0:03
e|---------------------------------------------------------------------------|
B|---------------------------------------------------------------------------|
G|-9-9-----------------------------------------------------------------------|
D|-9-9---------5-------------------------------------------------------------|
A|-7-7-5---5-7---7-5---------------------------------------------------------|
E|-------7-----------7-5-----------------------------------------------------|

0:03-0:07
e|---------------------------------------------------------------------------|
B|---------------------------------------------------------------------------|
G|-9-9-----------------------------------------------------------------------|
D|-9-9---------5-7b9r7-5-7-5-------------------------------------------------|
A|-7-7-5---5-7---------------7-----------------------------------------------|
E|-------7-------------------------------------------------------------------|

0:07-0:10
e|---------------------------------------------------------------------------|
B|---------------------------------------------------------------------------|
G|-9-9-----------------------------------------------------------------------|
D|-9-9---------5-------------------------------------------------------------|
A|-7-7-5---5-7---7-5---------------------------------------------------------|
E|-------7-----------7-5-----------------------------------------------------|

0:10-0:13
e|---------------------------------------------------------------------------|
B|---------------------------------------------------------------------------|
G|-9-9-----------------------------------------------------------------------|
D|-9-9-----------------------------------------------------------------------|
A|-7-7-5---5-----------------------------------------------------------------|
E|-------7---3-5-7-----------------------------------------------------------|

REPEAT VERSE (0:13-0:25)

CHORUS (0:25-0:49)

e|---------------------------------------------------------------------------|
B|---------------------------------------------------------------------------|
G|---------------------------------------------------------------------------|
D|---------------------------------------------------------------------------|x5
A|-7~------------------------------------------------------------------------|
E|----7-7-7-5-3--------------------------------------------------------------|

Last Time
e|---------------------------------------------------------------------------|
B|---------------------------------------------------------------------------|
G|---------------------------------------------------------------------------|
D|---------------------------------------------------------------------------|
A|-7~-----------7~~~~~~~~~~~-------------------------------------------------|
E|----7-7-7-5-3--------------------------------------------------------------|

VERSE (0:50-1:01

REPEAT VERSE (1:01-1:14)

CHORUS (1:15-1:36)

BREAK (1:37-2:03)

It sounds like he's picking out some notes from the verse riff, and using a
slide on the D/G strings.  Play around with it.

VERSE (2:04-2:16)

CHORUS (2:16-2:40)

VERSE (2:41-2:53)

REPEAT VERSE (2:54-3:06)

Finish with noise, picking the open E, and then sliding and picking notes along the E string


| /  slide up
| \  slide down
| h  hammer-on
| p  pull-off
| ~  vibrato
| +  harmonic
| x  Mute note
===============================================================================
Show more