• Song:

    Gold On The Ceiling

  • Artist:

    Black Keys

Great song :)

Intro:

e|------------------------------------------------------------|
B|------------------------------------------------------------|
G|------------------------------------------------------------|
D|-----12------10---12-10----7-----5---7-5----3---3-5-5-------|
A|--10----10-8----8--------5---5-3---3------1---1-------3-1---|
E|----------------------------------------------------------3-|


(Pre)Verse:

e|------------|
B|------------|
G|-4-4-4------|      x4
D|-5-5-5------|
A|-5-5-5--3-1-|
E|-3-3-3------|


Verse:

e|-3-3-3-3-1-1-1-1-0-0-0-0-3-3-3-3-|
B|-3-3-3-3-1-1-1-1-1-1-1-1-3-3-3-3-|
G|-4-4-4-4-2-2-2-2-0-0-0-0-4-4-4-4-|
D|-5-5-5-5-3-3-3-3-2-2-2-2-5-5-5-5-|
A|-5-5-5-5-3-3-3-3-3-3-3-3-5-5-5-5-|
E|-3-3-3-3-1-1-1-1-0-0-0-0-3-3-3-3-|


while this riff is played over it...

e|------------------------------------------------------|
B|------------------------------------------------------|
G|-12---12-10----10---12-10-----------------12-12/15\12-|   x2
D|------------12------------12-10---12-10-8-------------|
A|------------------------------------------------------|
E|------------------------------------------------------|


then the guitar goes...

e|-1--1-1--0--0-0--3--3-3--3--3-3-|
B|-1--1-1--1--1-1--3--3-3--3--3-3-|
G|-2--2-2--0--0-0--4--4-4--4--4-4-|
D|-3--3-3--2--2-2--5--5-5--5--5-5-|
A|-3--3-3--3--3-3--5--5-5--5--5-5-|
E|-1--1-1--0--0-0--3--3-3--3--3-3-|


Pre-Chorus:

e|-1-1--3-3--3-3-1-3------1-1--3-3-1-3-|
B|-1-1--5-5--3-3-1-3------1-1--5-5-1-3-|
G|-2-2--5-5--4-4-2-4------2-2--5-5-2-4-|   x2
D|-3-3--5-5--5-5-3-5------3-3--5-5-3-5-|
A|-3-3--3-3--5-5-3-5------3-3--3-3-3-5-|
E|-1-1--3-3--3-3-1-3------1-1--3-3-1-3-|

Chorus= same as verse chords


then there's the awesome riff after the chorus, with some effect that I can't figure out...

e|-----------------------------------------------------------|
B|-13b15----11-----11-13--13b15-----------11-13--13b15----11-|
G|-------12-----12--------------12-12--12--------------12----|
D|-----------------------------------------------------------|
A|-----------------------------------------------------------|
E|-----------------------------------------------------------|


e|--------------------------|
B|--------------------------|
G|-12-10-12-10--------------|
D|-------------10-8-10-8----|
A|-----------------------10-|
E|--------------------------|



e|-----------------------------------------------------------|
B|-13b15----11-----11-13--13b15-----------11-13--13b15----11-|
G|-------12-----12--------------12-12--12--------------12----|
D|-----------------------------------------------------------|
A|-----------------------------------------------------------|
E|-----------------------------------------------------------|


e|-----------------|
B|-13--------------|
G|----15-12-10-12~-|
D|-----------------|
A|-----------------|
E|-----------------|


then

Verse

Pre-Chorus

Chorus

Riff

Pre-Chorus

Chorus


The End.


(hope the tab was useful) :)
Show more