• Song:

    Goodbye Babylon

  • Artist:

    Black Keys

-------------------------------------------------------------------------------
			     GOODBYE BABYLON - Black Keys
-------------------------------------------------------------------------------
Tabbed by: Raoul Duke
Email: iamgod_22@hotmail.com		

Tuning: Standard

here is the full tab. the other one is correct but tabbed very stupidly.
this is simple and comlplete


Order:	Intro		x1
	Lead Riff	x3
	Verse Riff	x6
	Chorus Riff	x4
	Lead Riff	x4
	Verse Riff	x6
	Chorus Riff	x4
        Lead Riff	x7 (under solo)
	Verse Riff	x6
	Chorus Riff	x4
	Lead Riff	x4
	Outro 		x6
  Intro: (based around G)

e|---------------------------------------------------------------------------|
B|-----------6---------------------------------------------------------------|
G|-----0-/7----5--7--3--5--3------0---5555h7------5555---7-------------------|  
D|----------------------------5---------------8--0-----8---8-----------------|
A|---------------------------------------------------------------------------|
E|---------------------------------------------------------------------------|


  Lead Riff: (an octave lower)

e|---------------------------------------------------------------------------|
B|---------------------------------------------------------------------------|
G|---------------------------------------------------------------------------|  
D|---------3-----------------------------------------------------------------|
A|------5-----3--5--1--3---------3333h5-------3333---6-----------------------|
E|---3--------------------3~ -0----------6--0------5---6---------------------|


  Verse Riff: (this will vary every time but as long as you start in G and do
               F to G change at the end it will sound right. inbetween just 
               improvise around the lower G notes)

  [      G       ][       F      ][         G        ]
e|-------------------------------/-3--3--------------------------------------|
B|-----------------------------1-/-3--3--------------------------------------|
G|---------------------------2-2-/-4-----------------------------------------|  
D|-----------------3--3--3-3-3-3-/-5----------3------------------------------|
A|--------xx--3h5-----3--3-3-3-3-/-5------3h5---5--3-------------------------|
E|--3--3---------------------------------------------------------------------|


  Chorus Riff: 


e|---------------------------------------------------------------------------|
B|--1-1-1-1-1-1-1-1----1-/-3-------------------------------------------------|
G|--2-2-2-2-2-2-2-2----2-/-4-------------------------------------------------| 
D|--3-3-3-3-3-3-3-3-3333-/-5-------------------------------------------------|
A|--3-3-3-3-3-3-3-3-3333-/-5-------------------------------------------------|
E|---------------------------------------------------------------------------|

i didnt tab the solo because i cant be bothered but its in G (suprisingly). 
any ways the best thing about the blues is the freedom for improvisation so go nuts.

oh yer and the outro is just a verse riff played higher and with more intricacy 
im sure you can figure it out.


| /  slide up
| \  slide down
| h  hammer-on
| p  pull-off
| ~  vibrato
| +  harmonic
| x  Mute note
===============================================================================
Show more