• Song:

    Have Mercy On Me

  • Artist:

    Black Keys

have mercy on me-the black keys(cover song)
-------------------------------
this is just the main riff i figured out
played slow and bluesy of course

-----------------------------------------------|
-----------------------------------------------|
-----------------------------------------------|etc.
------------------5----------------------------|
--------7-5---5-7---7--------------------------|
-0----------7----------3----3-5-3-5-3-5-3-5-0--|


------------------------------------------------------|
------------------------------------------------------|
------------------------------------------------------|
------------------5h7p5-------------------------------|
--------7-5---5-7-------7-------------------------5-7-|
-0----------7--------------3----3-5-3-5-3-5-3-5s7-----|

------------------------------------------------------|
------------------------------------------------------|
------------------------------------------------------|
------------------------------------------------------|
-7-5--------------------------------------------------|
-----7-5--5-5-5-5-7-5-5-5-5-3-0-----------------------|
Show more