• Song:

    If You See Me

  • Artist:

    Black Keys

  • Album:

    Thickfreakness

-------0------------0-----|
----------3-2-------------|
---0h1----2-2---0h1-------|x2
--------------------------|
--------------------------|
-0------------0-------0---|

 add one of these in when needed
--------------------------|
-----3--------------------|
--s4---2p0-2--------------|
-------------0h2----------|
--------------------------|
--------------------------|

verse is somethin' along the lines of:
---3--------3----3-------3----|
---2--------2----2-------2----|
------------------------------|
--------0h2----------0h2------|
-0----3--------0---3----------|
------------------------------|
Show more