• Song:

    Just Got To Be

  • Artist:

    Black Keys

============================================================================
Just Got To Be - Black Keys
Magic Potion - 2006
============================================================================


Tabbed by Chuck
e-mail: chuck15050@hotmail.com


Here comes my second tab!

This song is one of my favorite from the Black Keys because it's simple and still sounds 
great when played with the good effects on it.

Again, this is highly inspired by other tabs. The reasons why I am making this one is to 
correct mistakes myself. If you're not fine about it, it's not my problem.

Be sure to listen to the song for the good rhythm and tempo.


========================================================
Intro (0:00 - 0:29)
========================================================


-----------------------------------------|
-----------------------------------------|
-----------7-----------------------------|
-------------9---------------------------|
------------------7---5---5/7-7/5--------|
-7-7-7-7-7------7---7---7---------7------|

-----------------------------------------|
-----------------------------------------|
-----------------7h9p7-------------------|
---------------9-------9--------7/9------|
-------------------------7---5------9/7--|
-7-7-7-7-7--7---------------7------------|

-----------------------------------------|
-----------------------------------------|
-----------7-----------------------------|
-------------9---------------------------|
------------------7---5---5/7-7/5--------|
-7-7-7-7-7------7---7---7---------7------|

-----------------------------------------|
-----------------------------------------|
-----------7-----------------------------|
-------------9---------------------------|
-----------------7-7---5---5/7-7\5-------|
-7-7-7-7-7-----------7---7---------7-----|


========================================================
Verse (0:29 - O:52)
========================================================


------------------------------------------------|
------------------------------------------------|
-----------------9-9-9---7-7-7-9-9-9------------|
---9-7h9p7-------9-9-9---7-7-7-9-9-9------------|
-----------9-8-7-7-7-7-5-5-5-5-7-7-7------------|
-7----------------------------------------------|
        ...When it comes to pride...

----------------------------------------------|
----------------------------------------------|
----------7-------------9-9-9---7-7-7-9-9-9---|
---9--7/9---9-7/--------9-9-9---7-7-7-9-9-9---|
----------------9-8/7-7-7-7-7-5-5-5-5-7-7-7---|
-7--------------------------------------------|
        ...And other sinful matters...

----------------------------------------------|
----------------------------------------------|
-----------------9-9-9---7-7-7-9-9-9----------|
---9-7h9p7-------9-9-9---7-7-7-9-9-9----------|
-----------9-8-7-7-7-7-5-5-5-5-7-7-7----------|
-7--------------------------------------------|
        ...You're gonna be misled...

----------------------------------------------|
----------------------------------------------|
-----------------9-9-9---7-7-7----------------|
---9-7h9p7-------9-9-9---7-7-7----------------|
-----------9-8-7-7-7-7-5-5-5-5----------------|
-7--------------------------------------------|
        ...Left feelin tarrered


========================================================
Pre-Chorus (0:52 - 1:02)
========================================================


--------------------------------------------------------------|
--------------------------------------------------------------|
--------------------------------------------------------------|
--------------------------------------------------------------|
----------------------5b--------------------------------------|
-7--------------------------7-----------------------5b----7---|
...I got to go because    ...Something's on my mind...

--------------------------------------------------------------|
--------------------------------------------------------------|
--------------------------------------------------------------|
--------------------------------------------------------------|
----------------------5b--------------------------------------|
-7--------------------------7---------------------------------|
...And I won't get better ...No matter how hard I try


========================================================
Chorus (1:02 - 1:24)
========================================================


-----------------------------------------|
-----------------------------------------|
-----------7-----------------------------|
-------------9---------------------------|
------------------7---5---5/7-7\5--------|
-7-7-7-7-7---- -7---7---7---------7------|
	  ...Whoaaa...

-----------------------------------------|
-----------------------------------------|
-----------7-----------------------------|
-------------9---------------------------|
------------------7---5---5/7-7\5--------|
-7-7-7-7-7------7---7---7---------7------|
	  ...Yeah...

-----------------------------------------|
-----------------------------------------|
-----------7---7h9p7---------------------|
-------------9-------9-------------------|
-----------------------7---5--5/7-7\5----|
-7-7-7-7-7---------------7--7---------7--|
	  ...You just got to be...

-----------------------------------------|
-----------------------------------------|
-----------7-----------------------------|
-------------9---------------------------|
------------------7---5---5/7-7\5--------|
-7-7-7-7-7------7---7---7---------7------|
	  ...The best thing for me


========================================================
Verse 2 (1:24 - 1:47)
========================================================

--------------------------------------------|
--------------------------------------------|
-----------------9-9-9---7-7-7-9-9-9--------|
---9-7h9p7-------9-9-9---7-7-7-9-9-9--------|
-----------9-8-7-7-7-7-5-5-5-5-7-7-7--------|
-7------------------------------------------|
	...Evil hides...

--------------------------------------------|
--------------------------------------------|
-----------7/----------9-9-9---7-7-7-9-9-9--|
---9--7/9/---9/7-------9-9-9---7-7-7-9-9-9--|
-----------------9-8-7-7-7-7-5-5-5-5-7-7-7--|
-7------------------------------------------|
	     ...In dark places...

--------------------------------------------|
--------------------------------------------|
-----------------9-9-9---7-7-7-9-9-9--------|
---9-7h9p7-------9-9-9---7-7-7-9-9-9--------|
-----------9-8-7-7-7-7-5-5-5-5-7-7-7--------|
-7------------------------------------------|
        ...But now I find it...

--------------------------------------------|
--------------------------------------------|
-----------------9-9-9---7-7-7--------------|
---9-7h9p7-------9-9-9---7-7-7--------------|
-----------9-8-7-7-7-7-5-5-5-5--------------|
-7------------------------------------------|
        ...In familiar faces


========================================================
Pre-Chorus (1:46 - 1:56)
========================================================


--------------------------------------------------------------|
--------------------------------------------------------------|
--------------------------------------------------------------|
--------------------------------------------------------------|
----------------------5b1/2-----------------------------------|
-7--------------------------7-----------------------5b1/4-7---|
...I got to go because    ...Something's on my mind...

--------------------------------------------------------------|
--------------------------------------------------------------|
--------------------------------------------------------------|
--------------------------------------------------------------|
----------------------5b1/2-----------------------------------|
-7--------------------------7---------------------------------|
...And it won't get better...No matter how hard I try


========================================================
Chorus (1:56 - 2:18)
========================================================


-----------------------------------------|
-----------------------------------------|
-----------7-----------------------------|
-------------9---------------------------|
------------------7---5---5/7-7\5--------|
-7-7-7-7-7---- -7---7---7---------7------|
	  ...Whoaaa...

-----------------------------------------|
-----------------------------------------|
-----------7---7h9p7---------------------|
-------------9-------9--------7/9-9/7----|
-----------------------7---5-------------|
-7-7-7-7-7---------------7--7------------|
	  ...Yeah...

-----------------------------------------|
-----------------------------------------|
-----------7-----------------------------|
-------------9---------------------------|
------------------7---5---5/7-7\5--------|
-7-7-7-7-7------7---7---7---------7------|
	  ...You just got to be...

-----------------------------------------|
-----------------------------------------|
-----------7-----------------------------|
-------------9---------------------------|
------------------7---5---5/7-7\5--------|
-7-7-7-7-7------7---7---7---------7------|
	  ...The best thing for me


========================================================
Bridge (2:18 - 2:32)
========================================================


------------------------------------------------------------------------------|
---------------------------------------------------------------------------10-|
-----------------------------------------7h9p7-----------7-7--7-9--9-10-11----|
----------------------7---------7-7--9-9-------9--9-9--9----------------------|
--------5-5--7-7--8-9----9-9--9-----------------------------------------------|
-7-7--7-----------------------------------------------------------------------|


-----------10----10----10----10-10-11/12---|
-11-11--11----11----11----11----11-11------|
-------------------------------------------|
-------------------------------------------|
-------------------------------------------|
-------------------------------------------|


========================================================
Outro (2:32 - 2:58)
========================================================


--------------------------------------------|
--------------------------------------------|
-----------------9-9-9---7-7-7-9-9-9--------|
---9-7h9p7-------9-9-9---7-7-7-9-9-9--------|
-----------9-8-7-7-7-7-5-5-5-5-7-7-7--------|
-7------------------------------------------|

--------------------------------------------|
--------------------------------------------|
----------7/----------9-9-9---7-7-7-9-9-9---|
---9--7/9---9-7/------9-9-9---7-7-7-9-9-9---|
----------------9-8/7-7-7-7-5-5-5-5-7-7-7---|
-7------------------------------------------|

--------------------------------------------|
--------------------------------------------|
--------------------------------------------|
---------------------9-9-9---7-7-7-9-9-9----|
---9-7/9-7-----------9-9-9---7-7-7-9-9-9----|
------------9-8-5--7-7-7-7-5-5-5-5-7-7-7----|
-7------------------------------------------|

--------------------------------------------|
--------------------------------------------|
----------7/----------9-9-9---7-7-7-9-9-9---|
---9--7/9---9-7/------9-9-9---7-7-7-9-9-9---|
----------------9-8/7-7-7-7-5-5-5-5-7-7-7---|
-7------------------------------------------|

--------------------------------------------|
--------------------------------------------|
--------------------------------------------|
--------------------------------------------|
--------------------------------------------|
-7----7-7-7---------------------------------|


========================================================
Order of the song:
========================================================


-Intro (0:00 - 0:29)

-Verse (0:29 - O:52)

-Pre-Chorus (0:52 - 1:02)

-Chorus (1:02 - 1:24)

-Verse 2 (1:24 - 1:47)

-Pre-Chorus (1:46 - 1:56)

-Chorus (1:56 - 2:18)

-Bridge (2:18 - 2:32)

-Outro (2:32 - 2:58)


========================================================


If you see any mistakes, leave a comment.
Show more