INTRO

E-------------------------
B-------------------------
G-------------------------
D-----7---5----4----------
A-00-0-0-0-00-0-00-2/3/2-0
E-------------------------

CHORUS

E-------------------------------------------------------
B-------------------------------------------------------
G-------------------------------------------------------
D-------------------------------------------------------
A-33333333-55555555-33333333-55555555-77777777-99999999-
E-11111111-33333333-11111111-33333333-55555555-77777777-

E-------------------------------------------------------
B-------------------------------------------------------
G-------------------------------------------------------
D-------------------------------------------------------
A-55555555-33333333-77777777-99999999-55555555-33333333-
E-33333333-11111111-55555555-77777777-33333333-11111111-

IN THE SECOND CHORUS THERES AN INTERLUDE ON EVERY
A-77777777-
E-55555555-

IT GOES

E--------------
B--------------
G-2p0---0------
D-----2--------
A---------3---0
E--------------

THATS ABOUT IT ENJOY
Show more