Tuning:EBGDAE (high to low)

Intro/Verse
     e-|--------------|---------------|---------------|------------|
     B-|--------------|---------------|---------------|------------|
     G-|--------------|---------------|---------------|------------|
     D-|---------7----|--------5------|---------4-----|--0---------|
     A-|-0-0---0------|-0---0---------|-0-0---0-------|-0-0-4h5p4--|
     E-|--------------|---------------|---------------|----------3-|

Pre chorus
     e-|-----------------------------------|
     B-|-----------------------------------|
     G-|-----------------------------------|
     D-|-333333--555555--333333--555555----|
     A-|-333333--555555--333333--555555----|
     E-|-111111--333333--111111--333333----|

Chorus
     e-|------------------------------------------|
     B-|------------------------------------------|
     G-|------------------------------------------| 
     D-|-7777777-10101010101010-5555555-3333333---|
     A-|-7777777-10101010101010-5555555-3333333---|
     E-|-5555555-8888888--------3333333-1111111---|
Bridge
     e-|----------------------|----------------------|
     B-|----------------------|----------------------|
     G-|----------------------|----------------------|
     D-|-777-7-7-7-7-5--------|-555-5-5-5--7-5-------|
     A-|-777-7-7-7----5s7-5---|-555-5-5-5-----5s7-5--|
     E-|-555-5-5-5------------|-333-3-3-3------------|

     e-|----------------------|----------------------|
     B-|----------------------|----------------------|
     G-|-555-5-5-5------------|----------------------|
     D-|-555-5-5-5-7-5--------|-333-3-3-5--7-5-------|
     A-|-333-3-3-3----5s7-5---|-333-3-3-5-----5s7-5--|
     E-|----------------------|-111-1-1-3------------|


Intro/Verse:x7 (Verse is in palm mute)

Pre chorus:x1

Chorus: x2

Intro/Verse:x7

Pre chorus:x1

Chorus:x2

Intro/Verse:x2

Chorus:x2

Bridge:x1

Chorus:x2

Bridge:x1

Enjoy playing:)
Show more