I'm sorry the bridge is not complete but the tab is good!

e----------------------------------------------------||
b-----------------------------------------------------||
g-----------------------------------------------------||
d-----------------------------------------------------||  X 2
a-0-0--0-12--0-0-10--0-0--0-9-0-5-5--45/4------------|
e------------------------------------------3----------|| INTRO

VERSES

e-------------------------------------||
b-------------------------------------||
g-------------------------------------||
d--like intro with X when they are 0--||
a-------------------------------------||
e-------------------------------------||

PRE-CHORUS

e-------------------------------------||
b-------------------------------------||
g-------------------------------------||
d-3---5---3---5---------------------------||
a-3---5---3---5---------------------------||
e-1---3---1---3---------------------------||


CHORUS X 2
e-------------------------------------||
b-------------------------------------||
g-------------------------------------||
d-7--10--5--3------------------------------||
a-7--10--5--3------------------------------||
e-5--8---3--1-----------------------------||

BRIDGE

e-------------------------------------||
b-------------------------------------||
g-------------------------------------||
d-7--7-7-7---------------------------------||
a-7--7-7-7---------------------------------||
e-5--5-5-5---------------------------------||



e-------------------------------------||
b-------------------------------------||
g-------------------------------------||
d-3--3-3-3----------10--10-10-10----------------||
a-3--3-3-3--same----10--10-10-10---same----------------------||
e-1--1-1-1----------8---8--8--8---------------||
Show more