"Learn To Crawl" by Black Lab
From: the "Spider-Man" soundtrack
Tuning: Standard
Tabbed by: Lt Aurum


Intro (0:14)

D---7----7----7----7----- 
A---------------------------
E-5---5----5----5------3-        x2

Verse (0:20)


D---7----7----7----7----- 
A---------------------------
E-5---5----5----5------3-        x8

Pre-Chorus (0:41)

E-1~----3~                          x2

Chorus (0:55)

A----3*--5*---------
E-5*----------1*--                  x2

Post-Chorus  (1:16)

D---7----7----7----7----- 
A---------------------------
E-5---5----5----5------3-        x4

Verse (1:28)

D---7----7----7----7----- 
A---------------------------
E-5---5----5----5------3-        x8

Pre-Chorus (1:51)

E-1~----3~                          x2

Chorus (2:02)

A----3*--5*---------
E-5*----------1*--                  x2

Post-Chorus  (2:24)

D---7----7----7----7----- 
A---------------------------
E-5---5----5----5------3-        x4

Bridge (2:36)


A----3*--5*---------
E-5*----------1*--                  x2

Chorus (2:59)

A----3*--5*---------
E-5*----------1*--                  x2

Outro (3:22)

D---7----7----7----7----- 
A---------------------------
E-5---5----5----5------3-        x4
Show more