• Song:

    Blackened Waters

  • Artist:

    Black Label Society

  • Album:

    The Blessed Hellride

#----------------------------------PLEASE NOTE--------------------------------#
#This file is the author's own work and represents their interpretation of the#
#song. You may only use this file for private study, scholarship, or research.#
#-----------------------------------------------------------------------------#



Artist: Black Label Society
Album: The Blessed Hellride 
Title: Blackened Waters

Tabbed By: Jay Vsalena

Tuning: D G C F A D



|-----0------------------------------------------------------------|
|------0------2--------------------3-------------------------------|
|-------0----2-2--------0--------2---------------------------------|
|----2------2---2------0-0------x----------------------------------|
|---2------0----------2---2----0-----------------------------------|
|--0-----------------3-----3--2------------------------------------|

Chorus
|-----------------------------------------------------------------------|
|-----------------------------------------------------------------------|
|-----------------------------------------------------------------------|
|-5--------2------------------------------------------------------------|
|-3--------2---5h7--7-7--5h7--7-7--5h7--7-7--5-5------------------------|
|----3ph---0-------------------------------------7-7--5-53--0----------|

Solo
 
|-----12-15-19--15--14-15-----------------------------------------------------------------|
|-15b-------------------------------------------------------------------------------------|
|-----------------------------------12-14-14b---------------------------------------------|
|--------------------------------------------------14-12-14-12----------------------------|
|---------------------------------------------------------------------12-14-12-----12-----|
|-----------------------------------------------------------------------------------15----|

|--------------------------------------------------------------------------------17-15-12--17-15-12---17-15-12-------|
|-------------------------------------------17-15-12------17-15-12----15----------15-------------15-------------15b--|
|---15-14-12-----15-14-12-----15----------------15-------------------------------------------------------------------|
|-14-------------14--------------------------------------------------------------------------------------------------|
|--------------------------------------------------------------------------------------------------------------------|
|--------------------------------------------------------------------------------------------------------------------|

||-17b---15-----15---15----15------------------12-------------12-------------------------------------------|
|--------------17b---17b---17b---17b--15b----15-12----------15-12-----12----12--------12-------------------|
|----------------------------------------------------------------14------------14-----14b----14b----14-12--|
|----------------------------------------------------------------------------------------------------------|
|----------------------------------------------------------------------------------------------------------|
|----------------------------------------------------------------------------------------------------------|

|-----------------------------------------------------------------|
|--15b------------------------------------------------------------|
|-----------------------------------------------------------------|
|-----------------------------------------------------------------|
|-----------------------------------------------------------------|
|-----------------------------------------------------------------|
Show more