• Song:

    Blackened Waters

  • Artist:

    Black Label Society

  • Album:

    The Blessed Hellride

Song: Blackened Waters
Artist: Black Label Society
Album: The Blessed Hellride

This is a great song it took me less the 20 minutes to figure out besides the solo, which is to hard for me.  So do with it what you please.  ROCK HARD AND BLEED BLACK LABEL!!!

Tuning (low to high): D G C F A D

Legend
/ - slide up
 - slide down
~ - pick harmonic (squeal)

Intro/Verse ? for verse use variations of this it will sound more like it
|----------------------------------------------------------|
|--------0-------------2---------------------------3-------|
|----0-----0-------0-----0-----------0---------2-----2-----|
|--2---2-----2---2---2-----2-----0-----0---------2-----2---|
|--2-----------2-0-----------0-5---5-----5---4-----------4-|
|--0---------------------------3-----------3-2-------------|
Do this the last time
|-----------------------------------------------|
|--------0-------------2---------------------4--|
|----0-----0-------0-----0-----------0-------2?-|
|--2---2-----2---2---2-----2-----0-----0-----2--|
|--2-----------2-0-----------0-5---5-----5---4--|
|--0---------------------------3-----------3-2--|

Second intro
|---------------------------------------------------------------------------------------|
|---------------------------------------------------------------------------------------|
|--9--11-12--14--16----16/1716-14--------9-11--12--14--16----16/1716--14-11-12-11-9---|
|--x--x--x---x---x-----x--x--x--x---------x--x--x---x---x-----x---x?x---x---x--x--x-x---|
|--7--9--10--12--14----14/1514-12--------7--9--10--12--14----14/1514--12--9-10-9--7---|
|-----------------------------------0-0-0-----------------------------------------------|

Chorus:                                          Last time do this /
|------------------------------------------------|--------------------------------------|
|------------------------------------------------|--------------------------------------|
|------------------------------------------------|--------------------------------------|
|--5----------2----------------------------------|--5----4------------------------------|
|--3----------2---5h7-7-7-5h7-7-7-8-8-8-7-7-5-5--|--3----2------------------------------|
|--3-------3~-0-------------------6-6-6-5-5-3-3--|--3----2------------------------------|

Bridge: This is the hard part to hear and make out so toy around with this
|----------------------------------------------------------------------------------------
|----------------------------------------------------------------------------------------
|--------0----------------0-----0--------------------------------------------------------
|----2-----2----------2-----2-----2------------------------------------------------------
|--2---2-----2---3--2---2-----2-----2---3------------------------------------------------
|--0-----------0----0-----------------0--------------------------------------------------
Show more