• Song:

    Bleed For Me

  • Artist:

    Black Label Society

  • Album:

    Kings of Damnation...

Title:	Bleed For Me
Artist:	Black Label Society
Album:	1919 Eternal
Tuning:	C, G, C, F, A, D

Intro/ Bridge:
D:-----------------------------------------------------------------
A:-----------------------------------------------------------------
F:-----------------------------------------------------------------
C:-----------------------------------------------------------------
G:-3---------------3---------------3---------------3-5-3-0---------
C:-3-0-0-0-0-0-0-0-3-0-0-0-0-0-0-0-3-0-0-0-0-0-0-0---------6-5-3-0-

D:-----------------------------------------------------------------
A:-----------------------------------------------------------------
F:-------------------------------------------------3---------------
C:-------------------------------------------------3---------------
G:-3-0-0-0-0-0-3-0-0-0-0-0-3-0-0-0-0-0-3-0-0-0-0-0-3---------------
C:-3-0-0-0-0-0-3-0-0-0-0-0-3-0-0-0-0-0-3-0-0-0-0-0-----------------

Verse:
D:-----------------------------------------------------------------
A:-----------------------------------------------------------------
F:-----------------------------------------------------------------
C:-3-0-0-5-0-0-3-0-0-6-0-0-5/6-5/6---------------------------------
G:-3-0-0-5-0-0-3-0-0-6-0-0-5/6-5/6-3---------------3---------------
C:-3-0-0-5-0-0-3-0-0-6-0-0-5/6-5/6-3-0-0-0-0-0-0-0-3-0-0-0-0-0-0-0-

D:-----------------------------------------------------------------
A:-----------------------------------------------------------------
F:-----------------------------------------------------------------
C:-----------------------------------------------------------------
G:-3---------------3-5-3---3---------------------------------------
C:-3-0-0-0-0-0-0-0-------6---6-5-3---------------------------------

Pre Chorus:
D:-----------------------------------------------------------------
A:-----------------------------------------------------------------
F:-------------------------------------------------3---------------
C:-------------------------------------------------3---------------
G:-3-0-0-0-0-0-3-0-0-0-0-0-3-0-0-0-0-0-3-0-0-0-0-0-3---------------
C:-3-0-0-0-0-0-3-0-0-0-0-0-3-0-0-0-0-0-3-0-0-0-0-0-----------------

Chorus:
D:-----------------------------------------------------------------
A:-----------------------------------------------------------------
F:-7-5-3-----------7-5-3-------------------------------------------
C:-7-5-3-2-3-2-----7-5-3-3-2-3-2-----------------------------------
G:-5-3-1-------3-1-5-3-1---------3-1-------------------------------
C:-0---------------0-----------------------------------------------

Solo:
D:-----------------------------------------------------------------
A:-------------------10-12-13-10-12-13-------------------10-12-13--
F:-10-12-13-10-12-13-------------------10-12-13-10-12-13-----------
C:-----------------------------------------------------------------
G:-----------------------------------------------------------------
C:-----------------------------------------------------------------

D:----------------------------10-12-13-10-12-13--------------------
A:-10-12-13-10-12-13-10-12-13-------------------10-12-13-10-12-13--
F:-----------------------------------------------------------------
C:-----------------------------------------------------------------
G:-----------------------------------------------------------------
C:-----------------------------------------------------------------

D:-----------------------------------------------------------------
A:-10-12-13-10-12-13-------------------10-12-13-10-12-13-----------
F:-------------------10-12-13-10-12-13-------------------10-12-13--
C:-----------------------------------------------------------------
G:-----------------------------------------------------------------
C:-----------------------------------------------------------------

D:----------------------------------------------------10-15-13-10--
A:----------10-12-13-10-------13b(15)-13b(14)-13b(15)--------------
F:-10-12-13--------------10-10-------------------------------------
C:-----------------------------------------------------------------
G:-----------------------------------------------------------------
C:-----------------------------------------------------------------

D:-15-13-10------------------------------------------15-13-10-15---
A:----------13-12-10-13-12-10--------------------------------------
F:----------------------------13-12-10-13-12-10--------------------
C:----------------------------------------------12~~---------------
G:-----------------------------------------------------------------
C:-----------------------------------------------------------------

D:-13-10------------------------------------------15-13-10-15-13---
A:-------13-12-10-13-12-10-----------------------------------------
F:-------------------------13-12-10-13-12-10-----------------------
C:-------------------------------------------12~~------------------
G:-----------------------------------------------------------------
C:-----------------------------------------------------------------

D:-10--------------------------------------------------------------
A:----13-12-10-13-12-10--------------------------------------------
F:----------------------13-12-10-13-12-10------12b(14)-10~-10------
C:----------------------------------------12~~---------------------
G:-----------------------------------------------------------------
C:-----------------------------------------------------------------

D:------------------10----10-13-10-15----13----12----10------------
A:-12b(13)-12-10-10----10-------------10----10----10---------------
F:------------------------------------------------------15b(17)-12-
C:-----------------------------------------------------------------
G:-----------------------------------------------------------------
C:-----------------------------------------------------------------

D:-----------------------------------------------------------------
A:-----------------------------------------------------------------
F:-10-17b(19)-12-10-15b(17)-12-10-12b(14)-15-12-15p12h15p12h15p12--
C:-----------------------------------------------------------------
G:-----------------------------------------------------------------
C:-----------------------------------------------------------------

D:-----------------------------------------------------------------
A:-----------------------------------------------------------------
F:-15-12-15-12-15-12-10----10-10-10-12b(14)-10~~~~-----------------
C:----------------------12-----------------------------------------
G:-----------------------------------------------------------------
C:-----------------------------------------------------------------
Show more