• Song:

    Blood In The Well

  • Artist:

    Black Label Society

Standard Tuning

Verse

     Am	     G
||--------333333--3--333333--||
||---0h1--111111--3--333333--||
||---2----222222--0--000000--||		Repeat Through Verse
||---2----222222--0--000000--||
||---0----000000--2----------||
||----------------3----------||


Chorus

	C		G	   Em
||---0--0000--3--3333--0--0000000--||
||---1--1111--3--3333--0--0000000--||
||---0--0000--0--0000--0--0000000--||
||---2--2222--0--0000--2--2222222--||	Repeat x3 and hold 
||---3--3333--2--2222--2--2222222--||	Em on final.
||---0--0000--3--3333--0--0000000--||

That's the song for the most part. I haven't figured out the electric yet, but you should be able to improvise it easily. Nobody plays Zakk exactly note for note anyway, so just use a lot bends and vibrato.
Show more