• Song:

    Born To Booze

  • Artist:

    Black Label Society

  • Album:

    Alcohol Fueled Brewtali...

Tuning: 1/2 step down



side pick
|-----------------------------|----------------------------------|
|-----------------------------|----------------------------------|
|-----------------------------|----------------------------------|
|-----------------------------|----------------------------------|
|------5h7---5h7--5-----------|-5h7--5h7-----------5----5h7h5----|
|-x\--0-----0------7-6-0-5-3-|-0----0---17/5--5-7----7-------7p5|



|-------------------------------|------------------------------|
|-10^8^10^8^--10-8-10-8-10-8----|------------------------------|
|-----------------------------9^|------------------------------|
|-------------------------------|--------5h7h5-----------------|
|-------------------------------|----5----------7-5------------|
|-------------------------------|-57---5-----------------------|



|------------------------|--------------------------------------|
|------------------------|--------------------------------------|
|------------------------|--------------------------------------|
|------------------------|--------------------5h7h5h7h5---------|
|-5h7--5h7--5------------|-5h7--5h7------5---------------7------|
|-0----0------7-6-0-5-3^-|-0----0----5-7---7--------------------|


slide side of pick on string                        mute.......
|-5p3-----5p3-------5p3-----|----------------------------------|
|-----4p2------4p2------4p2-|----------------------------------|
|---------------------------|-----------3^--5------------------|
|---------------------------|---------------5---2-2-2-2-2-2----|
|---------------------------|-5h7--5h7------3---2-2-2-2-2-2----|
|---------------------------|-0----0------------0-0-0-0-0-0----|

|------------------------------|--------------------------------|
|------------------------------|--------------------------------|
|--------------------------4^--|-5------------------------------|
|-7--5--4--2-----4--7--7-------|-5-----9----8----7-----5--------|
|-5--3--2--0-----2--5--5-------|-3------------------------------|
|------------------------------|-----7---6----5-----3-----------|



|--------------------------------------------------------------|
|--------------------------------------------------------------|
|--------------------------------------------------------------|
|---------------------------------------------7h8h7h5----------|
|-5h7-7-7-7-7-7---5h7-7-7-7-7-7--5-7-7-7-7-7-------------------|
|--------------------------------------------------------------|



|--------------------------------------------------------------|
|--------------------------------------------------------------|
|--------------------------------------------------------------|
|---------------------------------------------5h6h5h6h5h6h5----|
|-5h7-7-7-7-7-7--5h7-7-7-7-7-7--5h7-7-7-7-7-7------------------|
|--------------------------------------------------------------|

SOLO
slide pick
|-3\-|--------15-12-0--15-12-0--15-12-0--15-12-0--15-12-0-----|
|-3\-|--------------------------------------------------------|
|-----|-2^--3^-------------------------------------------------|
|-----|-2^-----------------------------------------------------|
|-----|--------------------------------------------------------|
|-----|--------------------------------------------------------|


|-15-12-0--15-12-0--15-12-0--15-12-0-|-------------------------|
|------------------------------------|-------------------------|
|------------------------------------|-2^--3^------------------|
|------------------------------------|-2^----------------------|
|------------------------------------|-------------------------|
|------------------------------------|-------------------------|



|-------------------------------------------------------------|
|--------------------------------------9----------------------|
|-------------------------------7-9-7-----979-----------------|
|-----------------5---------7-9-------------------------------|
|-----5-7-5---5-7---7-5---------------------------------------|
|-5-7-------7------------7------------------------------------|



|----------10h12h15----------10h12h15----------10h12h15----------10h12h15-|
|-10h12h15----------10h12h15----------10h12h15----------10h12h15----------|
|-------------------------------------------------------------------------|
|-------------------------------------------------------------------------|
|-------------------------------------------------------------------------|
|-------------------------------------------------------------------------|
                pick scrapes
|-17---17^-----------------------------------------------------|
|--------------------------------------------------------------|
|--------------------------------------------------------------|
|--------------------------------------------------------------|
|--------------x\---x-\--x-\---x-\-------------------------|
|--------------x\---x\---x-\---x-\-------------------------|
Show more