• Song:

    Born To Lose

  • Artist:

    Black Label Society

  • Album:

    Boozed Broozed & Broken...

Tabbed By MSpin1000
Standard Tuning G D A E
Black Label Society
Born To Lose

|-----------------------------------------------------------------------------------
|------------------------------------------------------------------7h8----7p5-------
|--5h7--5h7--5--------------------5h7--5h7----------------5------------7p5----------
|------------------7-6-0-5-3----------------------5---7-------7---------------------

|-----------------------------------------------------------------------------------
|------------------------------------------------------------------4-5--------------
|--5h7--7--7------7-7----3---3-3---0-3---3h-5-7--7-7-----7----3---3-3---3-----5-7---
|-----------------0-----------------------------------------------0--------------7--

|-----------------------------------------------------------------------------------
|-----------------------------------------------------9-------8-------7-------5-----
|--5h7--7--7------7-7----3---3-3---0-3--3----3--------------------------------------
|-----------------0-------------------------------7-------6-------5-------3---------

|-----------------------------------------------------------------------------------
|-------------------------------------------------------------7h87p5----------------
|--5h7-777p5----5h7-777p5---5h7-777p5-------------------75--------------------------
|------------------7-----------------7-----------------7----------------------------

|-----------------------------------------------------------------------------------
|---------------------------------------------------------------------------7h87p5--
|---------------------------5h7-777p5----5h7-777p5----5h7-777p5--------75-----------
|--6--6--6--6--6--6--6--6--------------7----------------7-----------7---------------

|-----------------------------------------------------------------------------------
|-----9-------8--------------------9-------8-------------------------9-------8------
|-----------------------------------------------------------------------------------
|--7------6-------5-----3------7-------6-------5--------3---------7------6------5---
Show more