• Song:

    Bullet Inside Your Head

  • Artist:

    Black Label Society

Dropped D


E---------------------------------------------------------------------------
B---------------------------------------------------------------------------
G---------------------------------------------------------------------------
D---------------------------------------------------------------------------
A--5-6-7--5------0-0-0-0-0---0-0---0-0-0-^----3-5-3--------5-6-7--3--0------
D--5-6-7--5-3~---0-0-0-0-0---0-0---0-0-0-3-5--3-5-3-5---5--5-6-7--3--0--3~~~

Solo

E--------------------------------------10-13-15-10-13-15----------------------
B--------------------10-13-15-10-13-15-------------------10-13-15-10-13-15----
G--10-12-13-10-12-13----------------------------------------------------------
D-----------------------------------------------------------------------------
A-----------------------------------------------------------------------------
D-----------------------------------------------------------------------------


E--------------------------------------10-13-15-10-13-15-------------
B--------------------10-13-15-10-13-15-------------------10-13-15---
G--10-12-13-10-12-13-------------------------------------------------
D--------------------------------------------------------------------
A--------------------------------------------------------------------
D--------------------------------------------------------------------

E-----------------------------------------------------------------
B-13^13--13^13-13---13-13-^13---13-^13--13-10---------------------
G---------------------------------------------12^12-12-10-12------
D-----------------------------------------------------------------
A-----------------------------------------------------------------
D-----------------------------------------------------------------

E-----------------------------------------------------------------
B-----------------------------------12-12-12-10-------------------
G--------10---------------10--------12-12-12-10-------------------
D-----10----12~12------10----12~~---------------12----------------
A--12--------------/12--------------------------------------------
D-----------------------------------------------------------------

E-----------------------------------------------------------------
B--------12-------13-------12-------10-------12-------13-12~~~~---
G-----------------------------------------------------------------
D--10-12----12-13----13-12----12-10----10-12----12-13----12~~~~---
A-----------------------------------------------------------------
D-----------------------------------------------------------------

E------------------------------------------------------12---------
B-----10-15----10-15----10-15--/-/----10-15----10-15--------------
G--13-------13-------13-------/-/--13-------13--------------------
D-----------------------------------------------------------------
A-----------------------------------------------------------------
D-----------------------------------------------------------------

E--13-10-12----13----10-----------------------------------------------------
B-----------13----13----12-13-10-12----13----10----------13-----------------
G-----------------------------------13----13----13-12-10----13-12-10-----12-
D---------------------------------------------------------------------12----
A---------------------------------------------------------------------------
D---------------------------------------------------------------------------

E-----------------------------------------------------------------
B-----------------------------------------------------------------
G--10-----------------2-5~------3-7~------5-9~-------7-10~--------
D-----12-10-12------3---------5---------7----------9--------------
A-----------------5---------7---------9---------10----------------
D-----------------------------------------------------------------

E-----------------------------------------------------------------
B-----------------------------------------------------------------
G--2-3-5-2-3-5-3-5-7-3-5-7---5-7-9-5-7-9-7-9-10-7-9-10------------
D-----------------------------------------------------------------
A-----------------------------------------------------------------
D-----------------------------------------------------------------

E------------------------------------------------------------------------
B-----------------------------------10-11-13-10-11-13-11-10-15-11-13-15--
G-9-10-12-9-10-12-10-12-14-10-12-14--------------------------------------
D------------------------------------------------------------------------
A------------------------------------------------------------------------
D------------------------------------------------------------------------
Show more