----------------------------------------------------------------------------
                        Blind Man - Black Stone Cherry
----------------------------------------------------------------------------

Tabbed By : Smokey192
e-mail: dragon193@hotmail.co.uk

Tuning:Drop C# (C#,G#,C#,F#)

The first section of the song is the guitar intro. The bass comes in with the second 
and the drums at (0:10). Its just at the end of the guitar riff so listen to the song, its 
to get.

Intro
F#|---------------------------------------|
C#|---------------------------------------|
G#|------------------------------------5--|
C#|--------------------------------3-5----|

F#|------------------------------------------------|
C#|----------------3-5-----------------------------|
G#|--/5----3-5---------3-5--/5----3-5-----1-----3--|
C#|-0--0-5-----0-3---------0--0-5-----0-3---3-5----|

Verse
F#|-------------------------------------------------|
C#|-----------------------------------3-------------|
G#|----3h5---3h5---3h5----333-----/5----5-3h5p3-----|
C#|-000---000---000---000----555-0--0-----------5-3-|

F#|-------------------------------------------------|
C#|-------------------------------------------------|
G#|----3h5---3h5---3h5----333-----/5------3-5-------|
C#|-000---000---000---000----3-5-0--0-3-5-----------|

F#|-------------------------------------------------|
C#|-----------------------------------3-------------|
G#|----3h5---3h5---3h5----333-----/5----5-3h5p3-----|
C#|-000---000---000---000----555-0--0-----------5-3-|

F#|-------------------------------------------------|
C#|-------------------------------------------------|
G#|----3h5---3h5---3h5----333-----/5------3-5-------|
C#|-000---000---000---000----3-5-0--0-3-5-----------|

Pre-Chorus
F#|-------------------------------------------------|
C#|-------------------------------------------------|
G#|-5-0h5-4-0h4-3-0h3-------------------------------|
C#|-------------------5-5p0-3-3-3-3-22222222--------|

Chorus
F#|-------------------------------------------------|
C#|-------------------------------------------------|
G#|-----------------0-3-3-3333---------3-5----------|
C#|-0-0-0005-3-3-333-----------5-5-3-5--------------|

F#|-------------------------------------------------|-----------------|
C#|-------------------------------------------------|-----------------|
G#|-----------------0-3-3-3333---------3-5----------|-----------------|
C#|-0-0-0005-3-3-333-----------5-5-3-5--------------|-3-3-3-3-5-5-5-5-|

Post-Chorus
F#|---------------------------------------------------|
C#|----------------3-5--------------------------------|
G#|--/5----3-5---------3-5--/5----3-5-----1---------3-|
C#|-0--0-5-----0-3---------0--0-5-----0-3---3p0-5p0---|

Verse 2
F#|-------------------------------------------------|
C#|-----------------------------------3-------------|
G#|----3h5---3h5---3h5----333-----/5----5-3h5p3-----|
C#|-000---000---000---000----555-0--0-----------5-3-|

F#|-------------------------------------------------|
C#|-------------------------------------------------|
G#|----3h5---3h5---3h5----333-----/5------3-5-------|
C#|-000---000---000---000----3-5-0--0-3-5-----------|

Pre-Chorus
F#|-------------------------------------------------|
C#|-------------------------------------------------|
G#|-5-0h5-4-0h4-3-0h3-------------------------------|
C#|-------------------5-5p0-3-3-3-3-22222222--------|

Chorus
F#|-------------------------------------------------|
C#|-------------------------------------------------|
G#|-----------------0-3-3-3333---------3-5----------|
C#|-0-0-0005-3-3-333-----------5-5-3-5--------------|

F#|-------------------------------------------------|-----------------|
C#|-------------------------------------------------|-----------------|
G#|-----------------0-3-3-3333---------3-5----------|-----------------|
C#|-0-0-0005-3-3-333-----------5-5-3-5--------------|-3-3-3-3-5-5-5-5-|

Post-Chorus 2
F#|-----------------------|
C#|-----3---------3-------|
G#|--3h5-35----3h5-35-----|
C#|--------535-------535--|

Bridge
F#|----------------------|--------------------|
C#|------3---------3-----|----3----------3----|
G#|-3h5-5-5-5-3h5-5-5-5--|-3h5-35----3----535-|
C#|----------------------|-------535--535-----|

F#|----------------------|----------------------|
C#|------3---------3-----|----3-----------3-----|
G#|-3h5-5-5-5-3h5-5------|-3h5-35-----3-----535-|
C#|-----------------0----|--------535---535-----|


F#|----------------------|--------------------------|
C#|------3---------3-----|-3h5------3h5------3h5----|
G#|-3h5-5-5-5-3h5-5-5-5--|----3h5------3h5----------|
C#|----------------------|-------3h5------3h5---3h5-|

F#|----------------------|
C#|-------3--------------|
G#|--3h5-5-5-3-5-3-3-----|
C#|---------------5-5-3--|

Guitar Solo
F#|-------------------------------------------------|
C#|-------------------------------------------------|
G#|-----------------0-3-3-3333---------3-5----------|
C#|-0-0-0005-3-3-333-----------5-5-3-5--------------|

F#|-------------------------------------------------|
C#|-------------------------------------------------|
G#|-----------------0-3-3-3333---------3-5----------|
C#|-0-0-0005-3-3-333-----------5-5-3-5--------------|

Pre-Chorus
F#|-------------------------------------------------|
C#|-------------------------------------------------|
G#|-5-0h5-4-0h4-3-0h3-------------------------------|
C#|-------------------5-5p0-3-3-3-3-22222222--------|

Chorus
F#|-------------------------------------------------|
C#|-------------------------------------------------|
G#|-----------------0-3-3-3333---------3-5----------|
C#|-0-0-0005-3-3-333-----------5-5-3-5--------------|

F#|-------------------------------------------------|-----------------|
C#|-------------------------------------------------|-----------------|
G#|-----------------0-3-3-3333---------3-5----------|-----------------|
C#|-0-0-0005-3-3-333-----------5-5-3-5--------------|-3-3-3-3-5-5-5-5-|

Outro
F#|--------------------------------------------------|
C#|----------------3-5-------------------------------|
G#|--/5----3-5---------3-5--/5----3-5-----3h5-3h5-\5-|
C#|-0--0-5-----0-3---------0--0-5-----0-3------------|


| /  slide up
| \  slide down
| h  hammer-on
| p  pull-off
| ~  vibrato
| +  harmonic
| x  Mute note
============================================================================
Show more