• Song:

    Knives And Pens

  • Artist:

    Black Veil Brides

  • Album:

    We Stitch These Wounds

-------------------------------------------------------------------------------
			     Knives And Pens Solo - Black Veil Brides
-------------------------------------------------------------------------------
Tabbed by: AmbiPain
Email: Who Cares? (:

Tuning: Drop C#

e|--13p10------10------------------------------------------------------------|
B|---------13-----------13p10--13p10--13p10------10--------------------10b---|
G|-------------------------------------------12-------12p10---12p10----12b---|
D|---------------------------------------------------------------------------|
A|---------------------------------------------------------------------------|
D|---------------------------------------------------------------------------|

e|---------------------------------------------------------------------------|
B|---------------------------------------------------------------------------|
G|----------10--12--10------10-12-13-12-10-12-10----10*/13\10/13-------------|
D|---10h12--------------12---------------------------------------------------|
A|---------------------------------------------------------------------------|
D|---------------------------------------------------------------------------|

e|--15p13--15p13-------------------------------------------------------------|
B|-----------------15-13-12--------------------------------------------------|
G|----------------------------14-12-------------------------12h14h15---------|
D|-----------------------------------14-12-10-12--12h14h15-------------------|
A|---------------------------------------------------------------------------|
D|---------------------------------------------------------------------------|

e|-13h17p13------------------------------------------------------------------|
B|-----------15--------------------------------------------------------------|
G|--------------14--------------10-12-14-------------------------------------|
D|-------------------10-12-14------------------------------------------------|
A|---------------------------------------------------------------------------|
D|---------------------------------------------------------------------------|

e|--12-15-12-13--------------------------------------------------------------|
B|---------------12------------9-10-12---------------------------------------|
G|-------------------9-10-12-------------------------------------------------|
D|---------------------------------------------------------------------------|
A|---------------------------------------------------------------------------|
D|---------------------------------------------------------------------------|

e|--10-13------------------------------9-12-9------9-------------------------|
B|---------11----------------------------------10----------------------------|
G|-------------10------------7-9-10------------------------------------------|
D|------------------7-9-10---------------------------------------------------|
A|---------------------------------------------------------------------------|
D|---------------------------------------------------------------------------|

e|--20-19-17------------18-17-15------------17-15-14-------------------------|
B|------------20-19-17------------18-17-15------------17-15-14-----18b-------|
G|---------------------------------------------------------------------------|
D|---------------------------------------------------------------------------|
A|---------------------------------------------------------------------------|
D|---------------------------------------------------------------------------|

* = Tremolo

************************************

| /   slide up
| \   slide down
| h   hammer-on
| p   pull-off
| ~   vibrato
| +   harmonic
| x   Mute note
| b   Bend
| pb  Pre-bend
| br  Bend release
| pbr Pre-bend release
| brb Bend release bend

************************************
Show more