• Song:

    Knives And Pens

  • Artist:

    Black Veil Brides

  • Album:

    We Stitch These Wounds

This what i have so far i'm working on the rest fell free to add any comments and corrections 

Tuning standard 7 string

11/12/10 added solo started working the rest of the chorus but didn't add it yet 
ill add it when im done with it. =)
BEADGbe

INTRO                                              Fixed This Part Below
e|-----------------------------------------------------------------|
b|----------------------------------------------0---1h3p1h3p1h3p1h3|
G|--------0-------------2-0-3---3---2-----0-0-0---0----------------|
D|----3-------3---3-2-0-----3-----------3--------------------------|
A|--------------------------1-1---1---1----------------------------|
E|-----------------------------------------------------------------|
B|3-3---3---3---3--------------------------------------------------|

e|-----------------------------------------------------------------|
b|------------------------------------------0-0-6-5-3--------------|
G|--------0-------------2-0-3---3---2-----0-----------3-2----------|
D|----3-------3---3-2-0-----3-----------3-----------------2--------|
A|--------------------------1-1---1---1----------------------------|
E|-----------------------------------------------------------------|
B|3-3---3---3---3--------------------------------------------------|

e|-----------------------------------------------------------------|
b|----------------------------------------------0---1h3p1h3p1h3p1h3|
G|--------0-------------2-0-3---3---2-----0-0-0---0----------------|
D|----3-------3---3-2-0-----3-----------3--------------------------|
A|--------------------------1-1---1---1----------------------------|
E|-----------------------------------------------------------------|
B|3-3---3---3---3--------------------------------------------------|


e|-----------------------------------------------------------------|
b|------------------------------------------0-0-6-5-3--------------|
G|--------0-------------2-0-3---3---2-----0-----------3-2----------|
D|----3-------3---3-2-0-----3-----------3-----------------2--------|
A|--------------------------1-1---1---1----------------------------|
E|-----------------------------------------------------------------|
B|3-3---3---3---3--------------------------------------------------|

e|-----------------------------------------------------------------|
b|----------------------------------------------0---1h3p1h3p1h3p1h3|
G|--------0-------------2-0-3---3---2-----0-0-0---0----------------|
D|----3-------3---3-2-0-----3-----------3--------------------------|
A|--------------------------1-1---1---1----------------------------|
E|-----------------------------------------------------------------|
B|3-3---3---3---3--------------------------------------------------|

e|-----------------------------------------------------------------|
b|-----------------------------------------------------------------|
G|--------0-------------2-0-3---3-2-0---0--------------------------|
D|----3-------3---3-2-0-----3---------3----------------------------|
A|--------------------------1-1------------------------------------|
E|-----------------------------------------------------------------|
B|3-3---3---3---3--------------------------------------------------|

Verse 1
e|-----------------------------------------------------------------|
b|-----------------------------------------------------------------|
G|-----------------------------------------------------------------|
D|-------10------10---------------------10-----10------------------|
A|5------7-------8-----------5----------7------8-------------------|
E|5------5-------6-----------5----------5------6-------------------|
B|3--------------------------3-------------------------------------|

chorus/prechorus
e|-----------------------------------------------------------------|
b|-----------------------------------------------------------------|
G|-----------------------------------------------------------------|
D|-----------------------------------------------------------------|
A|5-5---------5--5-5-----------------------------------------------|
E|5-5-5-5-5-5-5--5-5-5-5-5-5-5-------------------------------------|
B|3-3-3-3-3-3-3--3-3-3-3-3-3-3-------------------------------------|

Solo (by Chase the Riffer)
e|--------------------------------------------------------------------------|
B|--------------------------------------------------------------------------|
G|--------------------------------------------------------------------------|
D|------15-19-17-15-19-17-15-19-17-15-19-17-15-19-17-15---------------------|
A|--------------------------------------------------------------------------|
E|--------------------------------------------------------------------------|
B|--------------------------------------------------------------------------|

e|--------------------------------------------------------------------------|
B|--------------------------------------------------------------------------|
G|---------15-14----15-14----15-14----15-14----15-14------------------------|
D|------17-------17-------17-------17-------17-------17---------------------|
A|--------------------------------------------------------------------------|
E|--------------------------------------------------------------------------|
B|--------------------------------------------------------------------------|

e|--------------------------------------------------------------------------|
B|--------------------------------------------------------------------------|
G|------14-17-15-14-17-15-14-17-15-14-17-15-14-17-15-14---------------------|
D|--------------------------------------------------------------------------|
A|--------------------------------------------------------------------------|
E|--------------------------------------------------------------------------|
B|--------------------------------------------------------------------------|

e|--------------------------------------------------------------------------|
B|--------------------------------------------------------------------------|
G|------15-19-17-15-19-17-15-19-17-15-19-17-15-19-17-15---------------------|
D|--------------------------------------------------------------------------|
A|--------------------------------------------------------------------------|
E|--------------------------------------------------------------------------|
B|--------------------------------------------------------------------------|

e|-------------------17-20-17-----------------------------------------------|
B|--------------/18~----------18--------------------------------------------|
G|-------------------------------17-----------------------------------------|
D|----------------------------------19-17-19-17----17-----------------------|
A|----------------------------------------------20----20~~~-----------------|
E|--------------------------------------------------------------------------|
B|--------------------------------------------------------------------------|
  
e|-------------------17-18-17-----------------------------------------------|
B|--------------/18~----------18--------------------------------------------|
G|-------------------------------17-----------------------------------------|
D|----------------------------------19-17-19-17----17-----------------------|
A|----------------------------------------------20----20~~~-----------------|
E|--------------------------------------------------------------------------|
B|--------------------------------------------------------------------------|

e|--------------20--17------------------------------------------------------|
B|---------------------18---------------------------------------------------|
G|------------------------17----17------------------------------------------|
D|---------------------------20----20-19-20-19-17-19-17~~~------------------|
A|--------------------------------------------------------------------------|
E|--------------------------------------------------------------------------|
B|--------------------------------------------------------------------------|
Show more