• Song:

    Knives And Pens Acoustic

  • Artist:

    Black Veil Brides

Black veil Brides- Knives and Pens (acoustic) 

*NOTE* tuning is in drop D (D A D G B E)

Also, there is a lot of notes in this small space of time, so I have divided it up 
into 3 sections:

Key:
h= hammer on
p = pull off
s = slide

Section one:
E|-------------------------------------------------------------------| 
B|-------------------------------------------------------------------|
G|-------------------------------------------------------------------|
D|------2--3--2---------2--3--2--------2--3--2--------2--3--2--------|
A|----0--0--0--0------0--0--0--0-----0--0--0--0-----0--0--0--0-------|
D|--0---------------0--------------0--------------0------------------|
This section is only played in the first couple seconds, in the beginning of the song.



Section two:                                                                         
E|------------------------------------------------------------------| 
B|------------------------------------------------------------------| 
G|------------0------2-0-----5-4h5p4s3-0------3---2--0--------------| 
D|--------3------3--------3-----------------------------3-----------| 
A|-----0----0-----------------------------1-1---1-------------------| 
D|--0---------------------------------------------------------------| 

E|---0-1---------------------------------------------5-3-1-0--------|
B|------------------------------------------------------------------|
G|----------------0---2-0---5-4h5p4s3-0----3---2---0----------------|
D|-------------3----3-----3----------------------3------------------|
A|-------0---0---0----------------------1-1--1----------------------|
D|---------0-------------------------------------------------0------|
*repeat section Two 4 times*


Section Three:
E|------------------------------------------------------------------|
B|------------------------------------------------------------------|
G|---------0-----2-0----5-4h5p4s3-0------3---(3)s5-3-2-0------------|
D|-----3------3-------3---------------------------------------------|
A|--0----0---------------------------1-1---1------------------------|
D|------------------------------------------------------------------|
Singing begins…..

That’s all I have right now, please send corrections where needed ^
Show more