sponsored links
comece quando ouvir o baixo:


G|------------------------------------------2---------|
D|------2H4-2H4--0-0-0----------2H4-2H4--0-----2------|
A|---------------------0H2------------------------0H2-| 2x
E|-0-----------------------0--------------------------|



Versos:


     E       D       A       E
G|-------|-------|-------|-------|
D|-------|-------|-------|-------|
A|-------|-5--5-4|-------|-------|
E|-0---0-|-------|-5--5-3|-0---0-|



Refr?o
G|------------------------------------------2---------|
D|------2H4-2H4--0-0-0----------2H4-2H4--0-----2------|
A|---------------------0H2------------------------0H2-| 2x
E|-0-----------------------0--------------------------|
Show more
sponsored links
sponsored links