-------------------------------------------------------------------------------
			     Three Rounds and a Sound - Blind Pilot
-------------------------------------------------------------------------------
Tabbed by: Colin Klimowski
Email: sinkcolinsink@gmail.com

Tuning: Standard-optional capo on second fret

These are the chords: C#, A# minor, G#, F#, there are two bars on each chord throughout 
whole song, with some simple string fills thrown in. Just follow the strumming.

     C#           Bb Minor       Ab         F#

e|---9------------6--------------4----------2--------------------------------|
B|---9------------6--------------4----------2--------------------------------|
G|---10-----------6--------------5----------3--------------------------------|
D|---11-----------8--------------6----------4--------------------------------|
A|---11-----------8--------------6----------4--------------------------------|
E|---9------------6--------------4----------2--------------------------------|
Show more