Verse 1*
G|---4--4-4-------------------------24---|
D|-22-22-2----4-6424---6--6-6---2-46-----| 
A|----------22-2-----44-44-4--00-0-------| 
E|---------------------------------------|

G|---4--4-4------------------------------|
D|-22-22-2----4-6424---6--6-6---2-6424---| 
A|----------22-2-----44-44-4--00-0-------| 
E|---------------------------------------|

G|---4--4-4-------------------------24---|
D|-22-22-2----4-6424---6--6-6---2-46-----| 
A|----------22-2-----44-44-4--00-0-------| 
E|---------------------------------------|

G|---4--4-4------------------------------|
D|-22-22-2----4-6424---6--6-6---2-6424---| 
A|----------22-2-----44-44-4--00-0-------| 
E|---------------------------------------|



Chorus*
G|-------------------------------------|
D|-------------------------------------|
A|----------2-222222-4-444444-0-000000-| x2
E|-00000000----------------------------|



Verse 2*
G|---4--4-4-------------------------24---|
D|-22-22-2----4-6424---6--6-6---2-46-----| 
A|----------22-2-----44-44-4--00-0-------| 
E|---------------------------------------|

G|---4--4-4------------------------------|
D|-22-22-2----4-6424---6--6-6---2-6424---| 
A|----------22-2-----44-44-4--00-0-------| 
E|---------------------------------------|

G|---4--4-4-------------------------24---|
D|-22-22-2----4-6424---6--6-6---2-46-----| 
A|----------22-2-----44-44-4--00-0-------| 
E|---------------------------------------|

G|---4--4-4------------------------------|
D|-22-22-2----4-6424---6--6-6---2-6424---| 
A|----------22-2-----44-44-4--00-0-------| 
E|---------------------------------------|



Chorus*
G|-------------------------------------|
D|-------------------------------------|
A|----------2-222222-4-444444-0-000000-| x2
E|-00000000----------------------------|


Bridge*
Note: Bass comes in as soon as toms singing solo is over (Fate fell short..)

G|----|
D|----| 
A|-0~-| x1 
E|----|

(Look to the past. . .)

G|-------------------------------------|
D|-22222222----------------------------|
A|----------22222222-44444444-000000000| x2
E|-------------------------------------|


Final Chorus*

G|---4--4-4-------------------------24---|
D|-22-22-2----4-6424---6--6-6---2-46-----| 
A|----------22-2-----44-44-4--00-0-------| 
E|---------------------------------------|

G|---4--4-4------------------------------|
D|-22-22-2----4-6424---6--6-6---2-6424---| 
A|----------22-2-----44-44-4--00-0-------| 
E|---------------------------------------|

G|---4--4-4-------------------------24---|
D|-22-22-2----4-6424---6--6-6---2-46-----| 
A|----------22-2-----44-44-4--00-0-------| 
E|---------------------------------------|

G|---4--4-4------------------------------|
D|-22-22-2----4-6424---6--6-6---2-6424---| 
A|----------22-2-----44-44-4--00-0-------| 
E|---------------------------------------|
Show more