Blitzkid - Blutsauger

By: skyturnedred@gmail.com

Tuning one-step down: DGCFAD
Of course, easily played in standard tuning also.

INTRO Gtr1:
|-------------------------|
|-------------------------|
|-33-3-----------3-6-5----|
|-33-3-44-4-66-6-3-6-5----|
|-11-1-44-4-66-6-1-4-3----|
|------22-2-44-4----------|

INTRO Gtr2:
|------------------|
|------------6-----|
|-/6---6-5-6---6-5-|       Something
|------------------| x2    like
|------------------|       this.
|------------------|

|------------------|
|-----------6------|       Corrections
|-3---6-5-6---6-5--|       appreciated!
|------------------|
|------------------|
|------------------|
                    (Verse starts.)
|--------------------|----------|
|------------6-------|----------|
|-/6---6-5-6---6-5---|-3--------|
|--------------------|----------|
|--------------------|----------|
|--------------------|----------|


VERSE:
|-------------------------|
|-------------------------|
|-33-3-----------3-6-5----| x4
|-33-3-44-4-66-6-3-6-5----| 
|-11-1-44-4-66-6-1-4-3----|
|------22-2-44-4----------|


CHORUS:
|----------------------|
|----------------------|
|-33-3------66-6-------| x4
|-33-3-44-4-66-6-66-6--|
|-11-1-44-4-44-4-66-6--|
|------22-2------44-4--|


VERSE2 = INTRO

Repeat CHORUS


BRIDGE:
|---------------------------------|
|---------------------------------|
|-66-66-6-------------------------|
|-66-66-6-66-66-6-44-44-4-66-66-6-| x2
|-44-44-4-66-66-6-44-44-4-66-66-6-|
|---------44-44-4-22-22-2-44-44-4-|


SOLO with VERSE on the background

Repeat CHORUS

Repeat BRIDGE few times and end with:

|--------------|
|--------------|
|-6------------|
|-6------------|
|-4------------|
|--------------|


Sorry, I'm shitty at figuring out leads and solos,
so hopefully someone will have corrections and suggestions.
You can send them to skyturnedred@gmail.com
Show more