Blitzkid - “love like blood”
I did this by ear, might be wrong or might be right. This is the old version of 
the song by the way, there's a newer version and it's a bit different.

[Intro x6] Emptiness wells up from my insides..
|-----------------------------------------------------------------|
|-----------------1-1-1-1-1-1-1-1---------------------------------|
|-3-3-3-3-3-3-3-3-----------------1-1-1-1-1-1-1-1-1-1-1-1-1-1-1-1-|
|-----------------------------------------------------------------|

Your love looks like blood tonight..
|-----------------------------------------------------------------|
|----------------------------1-0----------------------------------|
|----1--3-----1--3--1-----1------3-1----1-------------------------|
|-4--------4-----------4-------------4----------------------------|

Well wishes and your kisses..
|-----------------------------------------------------------------|
|-----------------1--1-1-1-1-1-1----------------------------------|
|-3--3-3-3-3-3-3------------------1--1-1-1-1-1-1-1-1-1-1-1-1-1-1--|
|-----------------------------------------------------------------|

Your soul’s too far away..
|-----------------------------------------------------------------|
|-----------------1--1-1-1-1-1-1----------------------------------|
|-3--3-3-3-3-3-3------------------1--1-1-1-1-1-1-1-1-1-1-1-1-1-1--|
|-----------------------------------------------------------------|

That I now reside in..
|-----------------------------------------------------------------|
|-----------------1--1-1-1-1-1-1----------------------------------|
|-3--3-3-3-3-3-3------------------1--1-1-1-1-1-1-1-1-1-1-1-1-1-1--|
|-----------------------------------------------------------------|

And angel with tattered wings..
|-----------------------------------------------------------------|
|-----------------1--1-1-1-1-1-1----------------------------------|
|-3--3-3-3-3-3-3------------------1--1-1-1-1-1-1-1-1-1-1-1-1-1-1--|
|-----------------------------------------------------------------|

Your love looks like blood tonight..
|-----------------------------------------------------------------|
|-----------------------------------------------------------------|
|-----------------1--1-1-1-1-1-1--3--3-3-3-3-3-3-3-3-3-3--1-1-1---|
|-4--4-4-4-4-4-4--------------------------------------------------|

In the shadows no one seems me cry..
|-----------------------------------------------------------------|
|-----------------------------------------------------------------|
|-----------------1--1-1-1-1-1-1--3--3-3-3-3-3-3-3-3-3-3--1-1-1---|
|-4--4-4-4-4-4-4--------------------------------------------------|

Your love looks like blood tonight but this feels so right..
|-----------------------------------------------------------------|
|---------------------------------1-1-1--0-0-0--------------------|
|-----------------1--1-1-1-1-1-1----------------3-3-3--1-1-1------|
|-4--4-4-4-4-4-4--------------------------------------------------|

Hurts so bad to say goodbye..
|-----------------------------------------------------------------|
|-----------------------------------------------------------------|
|-----------------1--1-1-1-1-1-1----------------------------------|
|-4--4-4-4-4-4-4--------------------------------------------------|

[Interlude]
|-----------------------------------------------------------------|
|-1--1-1-1-1-1-1-1-1-1-1------------------------------------------|
|-------------------------1-1-1--3--3-3-3-3-3-3-3-3-3-3--1-1-1----|
|-----------------------------------------------------------------|

|---0-0-1-1-3-3-1-1-0-0-1-1-3-3-----------------------------------|
|-1------------------------------3--3-3-3-3-3-3-3-3-3-3--1-1-1----|
|-----------------------------------------------------------------|
|-----------------------------------------------------------------|

|---0-0-1-1-3-3-1-1-0-0-1-1-3-3-----------------------------------|
|-1------------------------------3--3-3-3-3-3-3-3-3-3-3--1-1-1----|
|-----------------------------------------------------------------|
|-----------------------------------------------------------------|

|---0-0-1-1-3-3-1-1-0-0-1-1-3-3-----------------------------------|
|-1------------------------------3--3-3-3-3-3-3-3-3-3-3--1-1-1----|
|-----------------------------------------------------------------|
|-----------------------------------------------------------------|

Your love looks like blood tonight..
|-----------------------------------------------------------------|
|-----------------------------------------------------------------|
|-----------------1--1-1-1-1-1-1--3--3-3-3-3-3-3-3-3-3-3--1-1-1---|
|-4--4-4-4-4-4-4--------------------------------------------------|

In the shadows no one seems me cry..
|-----------------------------------------------------------------|
|-----------------------------------------------------------------|
|-----------------1--1-1-1-1-1-1--3--3-3-3-3-3-3-3-3-3-3--1-1-1---|
|-4--4-4-4-4-4-4--------------------------------------------------|

Your love looks like blood tonight but this feels so right..
|-----------------------------------------------------------------|
|---------------------------------1-1-1--0-0-0--------------------|
|-----------------1--1-1-1-1-1-1----------------3-3-3--1-1-1------|
|-4--4-4-4-4-4-4--------------------------------------------------|

Hurts so bad to say good..
|-----------------------------------------------------------------|
|-----------------------------------------------------------------|
|-----------------1--1-1-1-1-1-1----------------------------------|
|-4--4-4-4-4-4-4--------------------------------------------------|

Hurts so bad to say good..
|-----------------------------------------------------------------|
|-----------------------------------------------------------------|
|-----------------1--1-1-1-1-1-1----------------------------------|
|-4--4-4-4-4-4-4--------------------------------------------------|

Hurts so bad to say good..
|-----------------------------------------------------------------|
|-----------------------------------------------------------------|
|-----------------1--1-1-1-1-1-1----------------------------------|
|-4--4-4-4-4-4-4--------------------------------------------------|

Hurts so bad..
|-----------------------------------------------------------------|
|-----------------------------------------------------------------|
|-----------------1-----------------------------------------------|
|-4--4-4-4-4-4-4--------------------------------------------------|

My eyes are blinded by the light..
|-----------------------------------------------------------------|
|-----------------1-1-1-1-1-1-1-1---------------------------------|
|-3-3-3-3-3-3-3-3-----------------1-1-1-1-1-1-1-1-1-1-1-1-1-------|
|-----------------------------------------------------------4-4-4-|

I’m coming soon for you, this time..
|-----------------------------------------------------------------|
|-----------------1-1-1-1-1-1-1-1---------------------------------|
|-3-3-3-3-3-3-3-3-----------------1-1-1-1-1-1-1-1-1-1-1-1-1-------|
|-----------------------------------------------------------4-4-4-|

I cannot bear to be left behind..
|-----------------------------------------------------------------|
|-----------------1-1-1-1-1-1-1-1---------------------------------|
|-3-3-3-3-3-3-3-3-----------------1-1-1-1-1-1-1-1-1-1-1-1-1-------|
|-----------------------------------------------------------4-4-4-|

Together in death the ties shall bind..
|-----------------------------------------------------------------|
|-----------------1-1-1-1-1-1-1-1---------------------------------|
|-3-3-3-3-3-3-3-3-----------------1-1-1-1-1-1-1-1-1-1-1-1-1-1-1-1-|
|-----------------------------------------------------------------|

Your love looks like blood tonight..
|-----------------------------------------------------------------|
|-----------------------------------------------------------------|
|---------------1-1-1-1-1-1-1-3-3-3-3-3-3-3-3-3-3-3-1-1-1---------|
|-4-4-4-4-4-4-4---------------------------------------------------|

In the shadows no one seems me cry..
|-----------------------------------------------------------------|
|-----------------------------------------------------------------|
|---------------1--1-1-1-1-1-1-3-3-3-3-3-3-3-3-3-3-3-1-1-1--------|
|-4-4-4-4-4-4-4---------------------------------------------------|

Your love looks like blood tonight but this feels so right..
|-----------------------------------------------------------------|
|------------------------------1-1-1-1-0-0-0-0--------------------|
|---------------1--1-1-1-1-1-1-----------------3-3-3-3-1-1-1-1----|
|-4-4-4-4-4-4-4---------------------------------------------------|

Hurts so bad to say good..
|-----------------------------------------------------------------|
|-----------------------------------------------------------------|
|-----------------1-1-1-1-1-1-1-1---------------------------------|
|-4-4-4-4-4-4-4-4-------------------------------------------------|

Hurts so bad to say good..
|-----------------------------------------------------------------|
|-----------------------------------------------------------------|
|-----------------1-1-1-1-1-1-1-1---------------------------------|
|-4-4-4-4-4-4-4-4-------------------------------------------------|

Hurts so bad to say good..
|-----------------------------------------------------------------|
|-----------------------------------------------------------------|
|-----------------1-1-1-1-1-1-1-1---------------------------------|
|-4-4-4-4-4-4-4-4-------------------------------------------------|

Hurts so bad to say goodbye.
|-----------------------------------------------------------------|
|-----------------------------------------------------------------|
|-----------------1-1-1-1-1-1-1-1--3------------------------------|
|-4-4-4-4-4-4-4-4-------------------------------------------------|
Show more