Tabbed by: Jesse D.
Email: jesse314159@yahoo.com

a=11

Verse 1 (clean):

Eb|------------------------------------------------------------------|
Bb|------------------------------------------------------------------|
Gb|------------------------------------------------------------------|  6x
Db|------------------------------------------------------------------|
Ab|-a-a-a-a-a-a-a-a-a-a-a-a-a-a-a-a-9-9-9-9-9-9-9-9-9-9-9-9-9-9-9-9--|
Eb|-9-9-9-9-9-9-9-9-0-0-0-0-0-0-0-0-7-7-7-7-7-7-7-7-7-7-7-7-7-7-7-7--|
    * * * * * * * * * * * * * * * * * * * * * * * * * * * * * * * *
First Chorus (clean):

Eb|--------------------------------------------------------------------|
Bb|-------------------------------------------4h5-----5-----5----------|
Gb|---------6----------------8------------6-------6-----6-----6--------|
Db|-----7-----7----------9-----9--------6---6-------6-----6-----6---4--|
Ab|---7---7-----7------9---9-----9----4---------------------------2----|
Eb|-5-------------5--7-------------7-----------------------------------|

Eb|-----------------------------------------------------------------------|
Bb|--------------------------7--------------------------------------------|
Gb|---------6------------------8----------9--------8--------6--------4----|
Db|-----7-----7----------9-------9------9---9----8---8----6---6----4---4--|
Ab|---7---7-----7------9---9-------9--7--------6--------4--------2--------|
Eb|-5-------------5--7----------------------------------------------------|

Eb|------------------------2--------2:-------|
Bb|---------2----------------2------2:-------|
Gb|-----2-----2--------4-------4----4:-------|
Db|---2---2-----2----4---4-------4--4:-------|
Ab|-0--------------2----------------2:-------|
Eb|------------------------------------------|

Verse 2 (distorted):

Eb|--------------------------------------------------------------|
Bb|--------------------------------------------------------------|
Gb|-6--6--6-6-6-6-----------------4--4--4-4-4-4-4-4-4-4-4-4-4-4--|
Db|-6--6--6-6-6-6--2--2--2-2-2-2--4--4--4-4-4-4-4-4-4-4-4-4-4-4--|  x4
Ab|-4--4--4-4-4-4--2--2--2-2-2-2--2--2--2-2-2-2-2-2-2-2-2-2-2-2--|
Eb|----------------0--0--0-0-0-0---------------------------------|

Chorus (distorted):

Eb|-------------------------------------------------------------------|
Bb|-------------------------------------------------------------------|
Gb|-2--2-2-2-2-2-2--4--4-4-4-4-4-4--6--6-6-6-6-6-6-6-6-6-6-6-6-6-4-4--|
Db|-2--2-2-2-2-2-2--4--4-4-4-4-4-4--6--6-6-6-6-6-6-6-6-6-6-6-6-6-4-4--|  x2
Ab|-0--0-0-0-0-0-0--2--2-2-2-2-2-2--4--4-4-4-4-4-4-4-4-4-4-4-4-4-2-2--|
Eb|-------------------------------------------------------------------|

Eb|---------------------------------|
Bb|---------------------------------|
Gb|-2--2-2-2-2-2-2--4--4-4-4-4-4-4--|
Db|-2--2-2-2-2-2-2--4--4-4-4-4-4-4--|
Ab|-0--0-0-0-0-0-0--2--2-2-2-2-2-2--|
Eb|---------------------------------|

Eb|------------------------|
Bb|------------------------|
Gb|-9-99-8-88-6-66-4-44-2--|
Db|-9-99-8-88-6-66-4-44-2--|
Ab|-7-70-6-60-4-40-2-20-0--|
Eb|------------------------|

Eb|------------------------------|
Bb|------------------------------|
Gb|-2-2-2-2-2-2--4--4-4-4-4-4-4--|
Db|-2-2-2-2-2-2--4--4-4-4-4-4-4--|
Ab|-0-0-0-0-0-0--2--2-2-2-2-2-2--|
Eb|------------------------------|

Bridge (distorted)

Eb|--------------------------------------------------------------------|
Bb|-5--5-5-5-5-5-5-5-5-5-5-5-5-----------------------------------------|
Gb|-4--4-4-4-4-4-4-4-4-4-4-4-4-4-4-4-6--6-6-6-6-6-6-6-6-6-6-6-6-4-4-4--|
Db|-2--2-2-2-2-2-2-2-2-2-2-2-2-4-4-4-6--6-6-6-6-6-6-6-6-6-6-6-6-4-4-4--|  x4
Ab|----------------------------2-2-2-4--4-4-4-4-4-4-4-4-4-4-4-4-2-2-2--|
Eb|--------------------------------------------------------------------|

Chorus 2 (distorted)

Eb|-------------------------------------------------------------------|
Bb|-------------------------------------------------------------------|
Gb|-2--2-2-2-2-2-2--4--4-4-4-4-4-4--6--6-6-6-6-6-6-6-6-6-6-6-6-6-4-4--|
Db|-2--2-2-2-2-2-2--4--4-4-4-4-4-4--6--6-6-6-6-6-6-6-6-6-6-6-6-6-4-4--|  x2
Ab|-0--0-0-0-0-0-0--2--2-2-2-2-2-2--4--4-4-4-4-4-4-4-4-4-4-4-4-4-2-2--|
Eb|-------------------------------------------------------------------|

Eb|---------------------------------|
Bb|---------------------------------|
Gb|-2--2-2-2-2-2-2--4--4-4-4-4-4-4--|
Db|-2--2-2-2-2-2-2--4--4-4-4-4-4-4--|
Ab|-0--0-0-0-0-0-0--2--2-2-2-2-2-2--|
Eb|---------------------------------|

Eb|------------------------|
Bb|------------------------|
Gb|-9-99-8-88-6-66-4-44-2--|
Db|-9-99-8-88-6-66-4-44-2--|
Ab|-7-70-6-60-4-40-2-20-0--|
Eb|------------------------|

Eb|---------------------------------|
Bb|---------------------------------|
Gb|-2--2-2-2-2-2-2--4--4-4-4-4-4-4--|
Db|-2--2-2-2-2-2-2--4--4-4-4-4-4-4--|  x3
Ab|-0--0-0-0-0-0-0--2--2-2-2-2-2-2--|
Eb|---------------------------------|

Eb|-----------------------|
Bb|-----------------------|
Gb|-2--2-2-2-2-2-2--4:----|
Db|-2--2-2-2-2-2-2--4:----|
Ab|-0--0-0-0-0-0-0--2:----|
Eb|-----------------------|

Verse 3 (distorted, slower)

Eb|-----------------------------------------------------------------|
Bb|-----------------------------------------------------------------|
Gb|-6--6-6-6-6-6-6------------------4--4-4-4-4-4-4-4-4-4-4-4-2-2-4--|
Db|-6--6-6-6-6-6-6--2--2-2-2-2-2-2--4--4-4-4-4-4-4-4-4-4-4-4-2-2-4--|  x4
Ab|-4--4-4-4-4-4-4--2--2-2-2-2-2-2--2--2-2-2-2-2-2-2-2-2-2-2-0-0-2--|
Eb|-----------------0--0-0-0-0-0-0----------------------------------|
       * * * * * *     * * * * * *     * * * * * * * * *
Eb|-------------------------------------------------------------------|
Bb|-------------------------------------------------------------------|
Gb|-2--2-2-2-2-2-2--4--4-4-4-4-4-4--6--6-6-6-6-6-6-6-6-6-6-6-6-6-4-4--|
Db|-2--2-2-2-2-2-2--4--4-4-4-4-4-4--6--6-6-6-6-6-6-6-6-6-6-6-6-6-4-4--|  x2
Ab|-0--0-0-0-0-0-0--2--2-2-2-2-2-2--4--4-4-4-4-4-4-4-4-4-4-4-4-4-2-2--|
Eb|-------------------------------------------------------------------|

Eb|---------------------------------|
Bb|---------------------------------|
Gb|-2--2-2-2-2-2-2--4--4-4-4-4-4-4--|
Db|-2--2-2-2-2-2-2--4--4-4-4-4-4-4--|
Ab|-0--0-0-0-0-0-0--2--2-2-2-2-2-2--|
Eb|---------------------------------|

Eb|------------------------------|
Bb|------------------------------|
Gb|-9--99--8--88--6--66--4--4-4--|
Db|-9--99--8--88--6--66--4--4-4--|
Ab|-7--70--6--60--4--40--2--2-2--|
Eb|------------------------------|

Eb|--------------------------------|
Bb|--------------------------------|
Gb|-2--2--2-2-2-2--4--4-4-4-4-4-4--|
Db|-2--2--2-2-2-2--4--4-4-4-4-4-4--|  x4
Ab|-0--0--0-0-0-0--2--2-2-2-2-2-2--|
Eb|--------------------------------|
    *
Ends on

Eb|-------|
Bb|-------|
Gb|-6:----|
Db|-6:----|
Ab|-4:----|
Eb|-------|


Note: I will not tab out any of TB's fancy tricks from Anatomy Of Reanimation.  Feel 
to ask about other Blitzkid tabs.  I know most of their songs aside from most of the solos.
Show more