Blitzkid: Pretty in a casket

Tabbed by: Derek Tibbs

Once again. The unregistered tab was mine. This is a more accurate update.

Riff 1:

G--------------------------------|
D--------------------------------|
A----4-5-66-666-99-999-----------|
E--6-------------------99-9999---|

Riff 2:

G----------------------------------|
D----------------------------------|
A--66-666-99-999-------------------|
E----------------99999999999—-|

Riff 3:(play first pt. 3 times)

G--------------------------------|
D--------------------------------|
A----------------66-666-666-6-4--|
E--22-222-44-444-----------------|

G---------------------------------|
D---------------------------------|
A---------------------------------|
E--22-222-44-444-666666666666666--|

The notes are most likely right, but i tabbed the patterns from memory.
Show more