Pretty In A Casket By Blitzkid
Standard Tunning EADGBe
Tabbed By "The Muddman" Jovan Sanchez

This song was definatly tricky to figure out. it took awhile,
and alot of second guessing but i think i got it right.
Also this is my 4rth Blitzkid Tab so chek out my other ones,
Long Live The Horror!!

INTRO

|-----------------------------------------------------------|
|-----------------------------------------------------------|
|-----6-7-8--88888--11-1111111111---------------------------|
|--0--6-7-8--88888--11-1111111111--11-11111111111111111111--|
|--0--4-5-6--66666---9--9-9-9-9-9--11-11111111111111111111--|
|----------------------------------9---9-9-9-9-9-9-9-9-9-9--|
                                             . . . . . . .     
             
|-----------------------------------------------------------|
|-----------------------------------------------------------|
|-----6-7-8--88888------------------------------------------|
|--0--6-7-8--88888--4--44444--11-11111111111111111111-------|
|--0--4-5-6--66666--4--44444--11-11111111111111111111-------|
|-------------------2--22222---9--9-9-9-9-9-9-9-9-9-9-------|
                                      . . . . . . . .
VERSE 
   
|-----------------------------------------------------------|
|-----------------------------------------------------------|
|-----6-7-8--88888--11-1111111111---------------------------|
|--0--6-7-8--88888--11-1111111111--11-11111111111111111111--|
|--0--4-5-6--66666---9--9-9-9-9-9--11-11111111111111111111--|
|----------------------------------9---9-9-9-9-9-9-9-9-9-9--|
                                       .
               
|-----------------------------------------------------------|
|-----------------------------------------------------------|
|-----6-7-8--88888------------------------------------------|
|--0--6-7-8--88888--4--44444--11-11111111111111111111-------|
|--0--4-5-6--66666--4--44444--11-11111111111111111111-------|
|-------------------2--22222---9--9-9-9-9-9-9-9-9-9-9-------|

CHORUS

|-----------------------------------------------|
|-----------------------------------------------|
|--8-88888--------------------------------------|
|--8-88888--4-44444--11-11111111111111111111----|
|--6-66666--4-44444--11-11111111111111111111----|
|-----------2-22222---9--9-9-9-9-9-9-9-9-9-9----|
                         . . . .                         

|-------------------------------------------------------|
|-------------------------------------------------------|
|--8-88888---11--1111111111-----------------------------|
|--8-88888---11--1111111111---11-11111111111111111111---|
|--6-66666----9---9-9-9-9-9---11-11111111111111111111---|
|------------------------------9--9-9-9-9-9-9-9-9-9-9---|
                                   

2ND Verse

|-----------------------------------------------------------|
|-----------------------------------------------------------|
|-----6-7-8--88888--11-1111111111---------------------------|
|--0--6-7-8--88888--11-1111111111--11-11111111111111111111--|
|--0--4-5-6--66666---9--9-9-9-9-9--11-11111111111111111111--|
|----------------------------------9---9-9-9-9-9-9-9-9-9-9--|

|-----------------------------------------------------------|
|-----------------------------------------------------------|
|-----6-7-8--88888------------------------------------------|
|--0--6-7-8--88888--4--44444--11-11111111111111111111-------|
|--0--4-5-6--66666--4--44444--11-11111111111111111111-------|
|-------------------2--22222---9--9-9-9-9-9-9-9-9-9-9-------|

2ND CHORUS    

|-------------------------------------------------------|
|-------------------------------------------------------|
|--8-88888---11--1111111111-----------------------------|
|--8-88888---11--1111111111---11-11111111111111111111---|
|--6-66666----9---9-9-9-9-9---11-11111111111111111111---|
|------------------------------9--9-9-9-9-9-9-9-9-9-9---|

|-----------------------------------------------|
|-----------------------------------------------|
|--8-88888--------------------------------------|
|--8-88888--4-44444--11-11111111111111111111----|
|--6-66666--4-44444--11-11111111111111111111----|
|-----------2-22222---9--9-9-9-9-9-9-9-9-9-9----|
     
1RST BRIDGE
                              
|--------------------------------------------|
|--------------------------------------------|
|--------------------8-888888888888-6--------|
|--4-44444--6-66666--8-888888888888-6--------|
|--4-44444--6-66666--6-666666666666-4--------|
|--2-22222--4-44444--------------------------|
                       ............
 
|--------------------------------------------|
|--------------------------------------------|
|--------------------8-888888888888-8--0-----|
|--4-44444--6-66666--8-888888888888-8--0-----|
|--4-44444--6-66666--6-666666666666-6--0-----|
|--2-22222--4-44444--------------------------|
                       ............

|--------------------------------------------|
|--------------------------------------------|
|--------------------8-888888888888-8--0-----|
|--4-44444--6-66666--8-888888888888-8--0-----|
|--4-44444--6-66666--6-666666666666-6--0-----|
|--2-22222--4-44444--------------------------|
                     

|--------------------------------------------|
|--------------------------------------------|
|--------------------------------------------|
|--4-44444--6-66666--8-8-8-8-8-8-8-8---------|
|--4-44444--6-66666--8-8-8-8-8-8-8-8---------|
|--2-22222--4-44444--6-6-6-6-6-6-6-6---------|


3RD CHORUS

|-------------------------------------------------------|
|-------------------------------------------------------|
|--8-88888---11--1111111111-----------------------------|
|--8-88888---11--1111111111---11-11111111111111111111---|x2
|--6-66666----9---9-9-9-9-9---11-11111111111111111111---|
|------------------------------9--9-9-9-9-9-9-9-9-9-9---|


|-----------------------------------------------|
|-----------------------------------------------|
|--8-88888--------------------------------------|
|--8-88888--4-44444--11-11111111111111111111----|
|--6-66666--4-44444--11-11111111111111111111----|
|-----------2-22222---9--9-9-9-9-9-9-9-9-9-9----|


|-------------------------------------------------------|
|-------------------------------------------------------|
|--8-88888---11--1111111111-----------------------------|
|--8-88888---11--1111111111---11-11111111111111111111---|
|--6-66666----9---9-9-9-9-9---11-11111111111111111111---|
|------------------------------9--9-9-9-9-9-9-9-9-9-9---|

2ND BRIDGE

|--------------------------------------------|
|--------------------------------------------|
|--------------------8-888888888888-6--------|
|--4-44444--6-66666--8-888888888888-6--------|
|--4-44444--6-66666--6-666666666666-4--------|
|--2-22222--4-44444--------------------------|
                       ............
 
|--------------------------------------------|
|--------------------------------------------|
|--------------------8-888888888888-8--0-----|
|--4-44444--6-66666--8-888888888888-8--0-----|
|--4-44444--6-66666--6-666666666666-6--0-----|
|--2-22222--4-44444--------------------------|
                       

|--------------------------------------------|
|--------------------------------------------|
|--------------------8-888888888888-8--0-----|
|--4-44444--6-66666--8-888888888888-8--0-----|
|--4-44444--6-66666--6-666666666666-6--0-----|
|--2-22222--4-44444--------------------------|
   
                  
|--------------------------------------------|
|--------------------------------------------|
|--------------------------------------------|
|--4-44444--6-66666--8-8-8-8-8-8-8-8---------|
|--4-44444--6-66666--8-8-8-8-8-8-8-8---------|
|--2-22222--4-44444--6-6-6-6-6-6-6-6---------|

OUTRO CHORUS

|-------------------------------------------------------|
|-------------------------------------------------------|
|--8-88888---11--1111111111-----------------------------|
|--8-88888---11--1111111111---11-11111111111111111111---|x2
|--6-66666----9---9-9-9-9-9---11-11111111111111111111---|
|------------------------------9--9-9-9-9-9-9-9-9-9-9---|


|-----------------------------------------------|
|-----------------------------------------------|
|--8-88888--------------------------------------|
|--8-88888--4-44444--11-11111111111111111111----|
|--6-66666--4-44444--11-11111111111111111111----|
|-----------2-22222---9--9-9-9-9-9-9-9-9-9-9----|


|-------------------------------------------------------|
|-------------------------------------------------------|
|--8-88888---11--1111111111-----------------------------|
|--8-88888---11--1111111111---11-11111111111111111111---|
|--6-66666----9---9-9-9-9-9---11-11111111111111111111---|
|------------------------------9--9-9-9-9-9-9-9-9-9-9---|


|--------------------------------------|
|--------------------------------------|
|--8\----------------------------------|
|--8\----------------------------------|
|--6\----------------------------------|
|--------------------------------------|

... = Palm Mute

\ = Slide
Show more