-------------------------------------------------------------------------------
			     Starlite Decay - Blitzkid
-------------------------------------------------------------------------------
Tabbed by:Luis Alvarez
Email:goingdown2die@yahoo.com

Tuning:Standard EADGBe

   Intro: 3x                  Ring first chord and palm mute the rest last time
e|-----------------------------------------------------------------------------|
B|-----------------------------------------------------------------------------|
G|-----------------------------------------------------------------------------|
D|--6--6-6-6-6-6-6-6-6-6--------4-6-6-6-6-6-6----------------------------------|
A|--6--6-6-6-6-6-6-6-6-6--------4-6-6-6-6-6-6----------------------------------|
E|--4--4-4-4-4-4-4-4-4-4--------4-6-6-6-6-6-6----------------------------------|

     Verse: 6x
e|---------------------------------------------------------------------------|
B|---------------------------------------------------------------------------|
G|---6-----------------------------------------------------------------------|
D|---6--6--8--4--------------------------------------------------------------|
A|---4--6--8--4--------------------------------------------------------------|
E|------4--6--2--------------------------------------------------------------|

     Ending Verse: 4x Palm muted
e|---------------------------------------------------------------------------|
B|---------------------------------------------------------------------------|
G|---6-----------------------------------------------------------------------|
D|---6--6--8--4--------------------------------------------------------------|
A|---4--6--8--4--------------------------------------------------------------|
E|------4--6--2--------------------------------------------------------------|

    Chorus
e|-----------------------------------------------------------------------------|
B|-----------------------------------------------------------------------------|
G|--6-5------------------------------------------------------------------------|
D|--6-5--8--8-8-8-8------------------------------------------------------------|
A|--4-3--8--8-8-8-8------------------------------------------------------------|
E|-------6--6-6-6-6------------------------------------------------------------|

   Break: 3x    Third time finish with F#-C#
e|-----------------------------|-----------------------------------------------|
B|-----------------------------|-----------------------------------------------|
G|---6----------------6--------|--6--------------------------------------------|
D|---6--8----------4--6--------|--6--8-------8-8-8-8-8-8-8-8-------------------|
A|---4--8----------4--4--------|--4--8-------8-8-8-8-8-8-8-8-------------------|
E|------6----------2-----------|------6-------6-6-6-6-6-6-6-6------------------|

   Outro: 12x Finish on C#
e|---------------------------------------------------------------------------|
B|---------------------------------------------------------------------------|
G|---6--------------------6--------------------------------------------------|
D|---6--6--8--4-----------6--------------------------------------------------|
A|---4--6--8--4-----------4--------------------------------------------------|
E|------4--6--2--------------------------------------------------------------|

| /  slide up
| \  slide down
| h  hammer-on
| p  pull-off
| ~  vibrato
| +  harmonic
| x  Mute note
===============================================================================
Show more